Song name
# A B C D E F G H I J K L M N O P Q R S T U V W X Y Z

Fireflight - Wrapped In Your Arms tab

I found a good tab on this sight, but it didn't sound quite right when I played it with 
the song, so I tried to correct it. Enjoy!

Intro:

Eb |--------------------------------------|
Bb |--7-7-7-7-7-8-----3-3-3-3-3-3-3-3-----|
Gb |--0-0-0-0-0-0-----0-0-0-0-0-0-0-0-----|
Db |--0-0-0-0-0-0-----0-0-0-0-0-0-0-0-----| x2
Ab |--7-7-7-7-7-7-----3-3-3-3-3-3-3-3-----|
Eb |--------------------------------------|

The verse is the same, but play it 4 times.

Pre-chorus:

Eb |--------------------------------------|
Bb |--3-3-3-3-3-3-----1-------------------|
Gb |--2-2-2-2-2-2-----0-------------------|
Db |--0-0-0-0-0-0-----2-------------------|
Ab |--0-0-0-0-0-0-----3-------------------|
Eb |--------------------------------------|

Chorus:

Eb |----------------------------------------------------------------------|
Bb |--0-0-0-0-0-0-0-0--3-3-3-3-3-3-3-3--0-0-0-0-0-0-0-0--1-1-1-1-1-1-1-1--|
Gb |--0-0-0-0-0-0-0-0--2-2-2-2-2-2-2-2--0-0-0-0-0-0-0-0--0-0-0-0-0-0-0-0--|x2
Db |--0-0-0-0-0-0-0-0--0-0-0-0-0-0-0-0--2-2-2-2-2-2-2-2--2-2-2-2-2-2-2-2--|
Ab |--2-2-2-2-2-2-2-2--0-0-0-0-0-0-0-0--2-2-2-2-2-2-2-2--3-3-3-3-3-3-3-3--|
Eb |--3-3-3-3-3-3-3-3-----------------------------------------------------|

Verse 2 is the same, and the chorus, then the bridge:

Eb |----------------------------------------------------------------------|
Bb |--1-1-1-1-1-1-1-1--1-1-1-1-1-1-1-1--0-0-0-0-0-0-0-0--3-3-3-3-3-3-3-3--|
Gb |--2-2-2-2-2-2-2-2--0-0-0-0-0-0-0-0--0-0-0-0-0-0-0-0--2-2-2-2-2-2-2-2--|
Db |--2-2-2-2-2-2-2-2--2-2-2-2-2-2-2-2--0-0-0-0-0-0-0-0--0-0-0-0-0-0-0-0--|x2
Ab |--0-0-0-0-0-0-0-0--3-3-3-3-3-3-3-3--2-2-2-2-2-2-2-2--0-0-0-0-0-0-0-0--|
Eb |------------------------------------3-3-3-3-3-3-3-3-------------------|

After the bridge, play the chorus, then the outro thing is:

Eb |----------------------------------|
Bb |---0------3-------0--------1------|
Gb |---0------2-------0--------0------|
Db |---0------0-------2--------2------|x2
Ab |---2------0-------2--------3------|
Eb |---3------------------------------|

Eb |----------------------------------|
Bb |--7-7-7-7-7-8----3-3-3-3-3-3-3-3--|
Gb |--0-0-0-0-0-0----0-0-0-0-0-0-0-0--|
Db |--0-0-0-0-0-0----0-0-0-0-0-0-0-0--|x2
Ab |--7-7-7-7-7-7----3-3-3-3-3-3-3-3--|
Eb |----------------------------------|

~~~End

So that's what I came up with. If there's anything wrong with it, let me know in the comments!
Tap to rate this tab
 
# A B C D E F G H I J K L M N O P Q R S T U V W X Y Z