Song name
# A B C D E F G H I J K L M N O P Q R S T U V W X Y Z

Fireflight - Recovery Begins tab

Tabbed by: Boonie

Piano Riff

|---------------------------------------|
|---------------------------------------|
|-----------8---4------------8---4---3--|
|-------6-----------------6-------------|
|---------------------------------------|
|---4-------------2----4-----------2----|

And then

|---------6-7----6-7-9---7-9-11---14-11-14-16---------------|
|-9-----9-------9-------------------------------------------|
|------8----------------------------------------------------|
|-----------------------------------------------------------|
|-----------------------------------------------------------|
|-----------------------------------------------------------|

|---------6-------6-7---7-9---11-9-7-(9-First-time)----------|
|-7---7-9----7-9------9---------------(11-Second-time)-------|
|----6-------------------------------------------------------|
|------------------------------------------------------------|
|------------------------------------------------------------|
|------------------------------------------------------------|

[Verse]
G#m _ F#

[Chorus]
G#m_F#_B_E

[Bridge]

E_G#m
|---6-7----6-7----6----------|
|-9-------9------9-----------|
|----------------------------|
|----------------------------| X2
|----------------------------|
|----------------------------|

B_F#
|--6-7----6-7----6----6-7---6-7---6-7--|
|-7------7------7----7------7----------|
|--------------------------------------|
|--------------------------------------|
|--------------------------------------|
|--------------------------------------|
Tap to rate this tab
# A B C D E F G H I J K L M N O P Q R S T U V W X Y Z