Song name
# A B C D E F G H I J K L M N O P Q R S T U V W X Y Z

Fireflight - For Those Who Wait tab

This song is in Drop C#
The intro/chorus can be used in the chorus... i'm not sure if its actually
played in the chorus but if you play it for the chorus it still sounds fine.

This is my first tab... I hope i did a good Job.

Intro/Chorus (Guitar 1)
D#|-------------------------------------------------|
A#|-------------------------------------------------|
F#|--7-7-7-7/9-9-10-7-9-10-7-7-7-7/12-12-10-7-12-10-|
C#|--x-x-x-x-x-x-x--x-x-x--x-x-x-x-x--x--x--x-x--x--|
G#|--5-5-5-5/7-7-8--5-7-8--5-5-5-5/10-10-8--5-10-8--|
C#|-------------------------------------------------|

D#|------------------------------------------------------------|
A#|------------------------------------------------------------|
F#|12-12-12-12-12-12-10-10-10-10-10-10-5-5-5-5-5-5/12-12-12-12-|
C#|x--x--x--x--x--x--x--x--x--x--x--x--x-x-x-x-x-x-x--x--x--x--|
G#|10-10-10-10-10-10-8--8--8--8--8--8--3-3-3-3-3-3/10-10-10-10-|
C#|------------------------------------------------------------|

D#|------------------------|
A#|------------------------|
F#|15-15-15-15-14-14-14-14-|
C#|x--x--x--x--x--x--x--x--|
G#|13-13-13-13-12-12-12-12-|
C#|------------------------|

Intro (Guitar 2)

Just strum a lot for all of these... you should be able to hear when you
are suppose to change. (note: the intro guitar 2 is not the EXACT same as the chorus. I 
will show you later...)

D#|-------------|
A#|-------------|
F#|-----------5-|
C#|--8--0--3--5-|
G#|--8--0--3--3-|
C#|--8--0--3----|

Pre-Chorus
D#|(Play each part twice)--------------------|
A#|------------------------------------------|
F#|--------5---------5-----------------------|
C#|--------5---------5----------5----------5-|
G#|3-3-3-3-3-3-3-3-3-3----------5----------5-|
C#|---------------------5-5-5-5-5--5-5-5-5-5-|
PM.......   PM......   PM......   PM......


Chorus (Guitar 2)

D#|-------------------------|
A#|-------------------------|
F#|----------5-----------5--|
C#|-8--0--3--5--5--0--3--5--|
G#|-8--0--3--3--5--0--3--3--|
C#|-8--0--3-----5--0--3-----|

Thats pretty much the whole song besides the bridge... which I don't feel like putting 
in here.
Tap to rate this tab
# A B C D E F G H I J K L M N O P Q R S T U V W X Y Z