Guitaretab - guitar tabs
Song name
# A B C D E F G H I J K L M N O P Q R S T U V W X Y Z

Fireflight - Stay Close tab

Tuning: Drop C#

Please note that in the fast verse riff the number of times picked is not shown. its not 
hard to pick up but it is picked alot more than 4 times.

Fast Verse Riff
|----------------------------------|
|----------------------------------|
|----------------------------------|
|----------------------------------|
|--4-4-4-4-------------------------|
|----------7-7-7-7-9-9-9-9-4-4-4-4-|

Pre-Chorus
|---------------------------------------------------------|
|--(this is similar to the verse but not exactly)---------|
|---------------------------------------------------------|
|---------------------------------------------------------|
|--4-4-4-4------------------------------------------------|
|----------7-7-7-7-9-9-9-9-4-4-4-4-7-7-7-7-9-9-9-9-4-4-4-4|
[ Tab from: http://www.guitaretab.com/f/fireflight/304756.html ]
Chorus
|-----------------------------|
|-(elevens)-------------------|
|----------9-9-9--------------|
|-11-11-11-9-9-9-7-7-7-4-4-4--|
|-11-11-11-7-7-7-7-7-7-4-4-4--|
|-11-11-11-------7-7-7-4-4-4--|

Post Chorus Riff (not 100% sure this is right but it is what it sounds like to me.)

Parentheses is at the End of the post riff

|---------------------------------------------------------|
|---------------------------------------------------------|
|---------------------------------------------------------|
|---------------------------------------------------------|
|---------------------------------------------------------|
|-0-10-9-0-10-0-10-12--0-10-9-0-10-0-10-12--(12-12-12-12)-|

I don't KNOW the bridge part yet... I have a idea what it is but i don't know for sure. 
So i am not going to post it.

I hope this was helpful!
Related for Stay Close tab
Stay Close chords by Fireflight