Song name
# A B C D E F G H I J K L M N O P Q R S T U V W X Y Z

Fireflight - Fire In My Eyes tab

Capo 3rd Fret
|------7------3---------------3-----|-----------------------------------------|
|-----------------1-----3-1-3-----1-|-----------1-----------------1-3---------|
|----0-----0----------0-------------|-----2-0-2-----------2-0---0-------------|
|---------------0---------------0---|---3-----------3---3---------------------|
|--X-----X----------3---------------|-------------3-----------0---------------|
|--3-----3--------------------------|-1---------------1-----------------------|

|------7-----3-------------1-0------|-----------------------------------------|
|----------------1-----3-1-----1----|---------------------------1-3-----------|
|----0-----0---------0-----------0--|-----2-----0-----2-----0-----------------|
|--------------0--------------------|---3-----3-----3-----3-------------------|
|--X-----X---------3----------------|-X-----------X-----------X-----0---------|
|--3-----3--------------------------|-1-----1-----1-----1-----X---------------|


|-----------------------------------------------------------------------------|
|-----------------------------------------------------------------------------|
Tap to rate this tab
# A B C D E F G H I J K L M N O P Q R S T U V W X Y Z