Song name
# A B C D E F G H I J K L M N O P Q R S T U V W X Y Z

Fireflight - You Decide tab

Song: You Decide
Band: Firflight
Tab by: Mark S. (prsmark)
E-mail: marksoccerplayer@yahoo.com

So I didn't see anyyy good tabs of this song unfortunately so I decided to make my own 
it sounds pretty good OTHER THAN THE BRIDGE. If someone could give me some corrections 
it much is apprieciated. ;]
E-mail me for the music if you want or for some help. Enjoy. ;]


***Note*** on the verse...the last F chord of the verse could either be
E|----------------|
B|----------------|
G|-10--------3----|
D|-10---OR---3----|
A|--8--------1----|
E|----------------|
you pick but im going to tab it for the upper F.

Intro: Part with echoes...this part kinda weird but these are notes and havnt come up 
the picking on it...
Intro 1st part.
E|--------------------------------------------------------------------------|
B|--------------------------------------------------------------------------|
G|--------------------------------------------------------------------------|
D|--------------------------------------------------------------------------|
A|-55555555-66666666-55555555-33333333---3333333333-11111111----------------|
E|-------------------------------------1----------------------55555555------|
                                                 (get louder)<<<<<<<

Intro 2nd part.                                                  F   F    F
E|---------------------------------------------------------------------------|
B|---------------------------------------------------------------------------|
G|---------------------------------------------------------------------------|
D|-------------------------------------------------------------3333-3333-33--|
A|--666666-----6666---3333333------3333-----6666666----6666----3333-3333-33--|
E|3---------33------1-----------11--------3---------33---------1111-1111-11--|


Verse 1: 0:25 (Fiction and reality collide...) tabbed with the chords but not ryhmically 
firgue it out ;]

   G  F  D#  F
E|----------------|
B|----------------|
G|----------------|
D|-5--3--8---10---|
A|-5--3--8---10---|
E|-3--1--6----8---|

Chorus: 0:46
   D#      F        G
E|----------------------------------------------|
B|----------------------------------------------|
G|-8-8-8-8--------------------------------------|
D|-8-8-8-8-3-3-3-3--5-5-5-5-5-5-5-5-------------|
A|-6-6-6-6-1-1-1-1--5-5-5-5-5-5-5-5-------------|
E|---------1-1-1-1--3-3-3-3-3-3-3-3-------------|

   D#      F        D
E|----------------------------------------------|
B|----------------------------------------------|
G|-8-8-8-8----------7-7-7-7-7-7-7-7-------------|
D|-8-8-8-8-3-3-3-3--7-7-7-7-7-7-7-7-------------|
A|-6-6-6-6-3-3-3-3--5-5-5-5-5-5-5-5-------------|
E|---------1-1-1-1------------------------------|

 D#      F          G
E|----------------------------------------------|
B|----------------------------------------------|
G|-8-8-8-8--------------------------------------|
D|-8-8-8-8-3-3-3-3--5-5-5-5-5-5-5-5-------------|
A|-6-6-6-6-1-1-1-1--5-5-5-5-5-5-5-5-------------|
E|---------1-1-1-1--3-3-3-3-3-3-3-3-------------|

   D#       D
E|----------------------------------------------|
B|----------------------------------------------|
G|-8-8-8-8--7~~~--------------------------------|
D|-8-8-8-8--7~~~--------------------------------|
A|-6-6-6-6--5~~~--------------------------------|
E|----------------------------------------------|

Repeat Intro 2nd part
Repeat Verse
Repeat Chorus

Bridge:it sounds ok. but repeat following chords with the music.

   C  G#  D#
E|-------------|
B|-------------|
G|--------8----|
D|-10--6--8----|
A|-10--6--6----|
E|--8--4-------|

Repeat Chorus
Then Intro 2nd part ending with a G


   G
E|---------------------------------------|
B|---------------------------------------|
G|---------------------------------------|
D|-5-5-5-5-------------------------------|
A|-5-5-5-5-------------------------------|
E|-3-3-3-3-------------------------------|
Tap to rate this tab
# A B C D E F G H I J K L M N O P Q R S T U V W X Y Z