Song name
# A B C D E F G H I J K L M N O P Q R S T U V W X Y Z

Firehose - For The Singer Of Rem tab

fIREHOSE
For The Singer Of REM - if'n

INTRO x2
e|------------------------------------|
B|------------------------------------|
G|------------------------------------|
D|---2--2-----2--2-----9--9-----9--9--|
A|---2--2-----2--2-----9--9-----9--9--|
E|00---0---00---0---00---0---00---0---|

VERSE CHORDS x4

         A             G              E           D
Here's a version of tradition you can put in your drawer...

CHORUS

B5/G                    GbB5  B5/G                    GbB5
The door can't tell you more, than to deal with the drawer...

E|7-----7-----|
B|7-----7-----|
G|4-----4-----|
D|5-----4-----|
A|------------|
E|------------|

REPEAT INTRO

BRIDGE

A# maj, A maj, G# maj  x3,
then bend up these notes a half step...
B|3--3--3--3--3--|
G|3--3--3--3--3--|

Now repeat all of this for the second verse
and then repeat again until the chorus of the
third verse and linger on the last chord of
the chorus as the vocal sings out.

__________
Ves Paul
pawnshopgentlemen.com
Tap to rate this tab
# A B C D E F G H I J K L M N O P Q R S T U V W X Y Z