Song name
# A B C D E F G H I J K L M N O P Q R S T U V W X Y Z

Firehouse - Get Ready tab

                        Firehouse – Get ready solo
                           From  “Category 5”

By Sanjeev George and Thomas George
SanjeevGeorge123@yahoo.co.in


e|----------------------------------------------------------------------------------|
B|--------7---5b7---5v-----7-------------------------------------9b10----9-7---7----|
G|---4-6----6------------6---6--6-7-7-7-7-6h7p6-4---4-6p4--------------------9------|
D|------------------------------------------------7-------4v------------------------|
A|----------------------------------------------------------------------------------|
E|----------------------------------------------------------------------------------|

e|---14-----------------16-----------------17-------19-------19b21----------|
B|------14-14-14----14-----14-14-14----14--------14-------14----------------|
G|---------------16-----------------16--------16-------16-------------------|
D|--------------------------------------------------------------------------|
A|--------------------------------------------------------------------------|
E|--------------------------------------------------------------------------|

e|---21-16-------19-----------19-17-16--------17-16-------------------17-16-----------------|
B|---------19-17----19--19-17----------17--17-------19-17-------16-17-------17-19vvvvvvvv---|
G|-------------------------------------------------------19--18-----------------------------|
D|------------------------------------------------------------------------------------------|
A|------------------------------------------------------------------------------------------|
E|------------------------------------------------------------------------------------------|

Please rate
Tap to rate this tab
# A B C D E F G H I J K L M N O P Q R S T U V W X Y Z