Song name
# A B C D E F G H I J K L M N O P Q R S T U V W X Y Z

Firehouse - Love Of A Lifetime Acoustic tab

LOVE OF A LIFETIME- firehouse

TABS BY: j. Gimotea
jep0y_41xxx@yahoo.com

e------------------------------------------5^----|
b----8~-8h10-8p--7---7h8-7p--5--5h7-5p-----------|
g--------------------------------------7---------|
d------------------------------------------------|
a------------------------------------------------|
E------------------------------------------------|

e---------7^-7^----------------------------------|
b-----------------8---8h10-8p--------------------|
g---7h9------------------------7h9-7p------------|
d------------------------------------------------|
a------------------------------------------------|
E------------------------------------------------|

e---------10--12-10--12s14-12---10h12--10p-10----|
b---10s12----------------------------------------|
g------------------------------------------------|
d------------------------------------------------|
a------------------------------------------------|
e------------------------------------------------|

e-------10-12--12s14------10--  I----17--15--14-15-14-----17^--|
b---12----------------12------  I---------------------15-------|
g-----------------------------  I------------------------------|
d-----------------------------  I------------------------------|
a-----------------------------  I------------------------------|
E-----------------------------  I------------------------------|
Tap to rate this tab
# A B C D E F G H I J K L M N O P Q R S T U V W X Y Z