Song name
# A B C D E F G H I J K L M N O P Q R S T U V W X Y Z

Firehouse - Here For You tab

Not sure if there are resonating effects or is it a 12 string guitar for the double 
string-like sound.

I dismissed the possibility that it is 2 string played together on a normal 6 string 
guitar because the first riff being played is definitely not the 1st string G and the 
second string D together.
Sounds totally different and off pitch.
It is tuned down half a step. Yes, I tabbed this with it half step down.[though I 
initially was too lazy to turn the knobs xP]

-------------------|--------|-------|----------|----------------------------|
-------------------|----3---|----1--|-------0--|--0-------------------------|
--------0----------|------0-|------0|---------0|----0-----------------------|
----0h2----2-------|--0-----|--0----|----0-----|0---------------------------|
-------------0h2---|--------|0------|----------|----------------------------|
-----------------3-|--------|-------|3---------|----------------------------|


                    There's a pause in this 2nd bar after d Bass&treble G
-------------------|-----------|-----|--------------------------------------|
-----------1-------|-3-----3---|--1-0|--------------------------------------|
-------------0-----|----2--2--0|--0-0|-------0------------------------------|
---------------0h2-|-0---------|0----|0h2-----------------------------------|
-----0h2h3---------|----0------|-----|--------------------------------------|
-------------------|----------3|-----|---------3----------------------------|

Back to the 1st line, 2nd bar onwards and repeat.

Alternatively, with more confidence, cause I hear a sliding movement, this is how the 
2nd line and the bars should end
(the pause in the 2nd bar over here after the bass and treble G still remains):

-------------------|------------|------|------------------------------------|
-----------1-------|---3----3---|---1p0|------------------------------------|
-------------0-----|----------0-|---0--|----0-------------------------------|
---------------0h2-|------0-----|-0----|0h2---------------------------------|
-----0h2h3---------|---5--------|------|------------------------------------|
-------------------|----------3-|------|-----3------------------------------|

So, the intro is played once. Then twice over the verse before jumping into pre-chorus:

Em
And if you ever get lost on life's highway,
Bm7
Don't know where to go,
C
There's just one thing
D
That I want you to know~!!

Chorus:
C, D, G
I'll be here for you
Always here for you
Em Bm7
If you need a shoulder to cry on
C G
Someone to rely on
C, D, G
I'll be here for you.

1st solo
----------------------------------------------------------------------------|
----------------------------------------------------------------------------|
--------------------12-----14b-14-12--14b-14--12--14b-14-12-----------------|
-----12-12-12--12h14--------------------------------------------------------|
----------------------------------------------------------------------------|
----------------------------------------------------------------------------|

----------------------------------------------------------------------------|
----------------------------------------------------------------------------|
--------------------12-----14b-14-12------------------12--------------------|
-----12-12-12--12h14----------------14--14--14p12h14------------------------|
----------------------------------------------------------------------------|
----------------------------------------------------------------------------|

Verse is the same Riff.

2nd solo
----------------------------------------------------------------------------|
----------------------------------------------------------------------------|
--------------------12-----14b-14r12h14---14r12h14--------------------------|
-----12-12-12--12h14--------------------------------------------------------|
----------------------------------------------------------------------------|
----------------------------------------------------------------------------|

----------------------------------------------------------------------------|
----------------------------------------------------------------------------|
-----14s12p9h12--9-9s7---7p9--7p9s12---14--16-16h17p16p14h16--16h17p16p14h16|
-----------------------9----------------------------------------------------|
----------------------------------------------------------------------------|
----------------------------------------------------------------------------|

----------------------------------------------------------------------------|
---------------------------------------------15-----------------------------|
------------16h17p16p14h16---16h17p16p14h16---------------------------------|
----------------------------------------------------------------------------|
----------------------------------------------------------------------------|
----------------------------------------------------------------------------|

----------------15-17b17r15h17----------------------------------------------|
---15-15-15-15h17-----------------------------------------------------------|
----------------------------------------------------------------------------|
----------------------------------------------------------------------------|
----------------------------------------------------------------------------|
----------------------------------------------------------------------------|

17b-17r15h17--17p15s12h15p12s10--10h12--------------------------------------|
-------------------------------12-------------------------------------------|
----------------------------------------------------------------------------|
----------------------------------------------------------------------------|
----------------------------------------------------------------------------|
----------------------------------------------------------------------------|

-15-15-15-14-14-14-12-12-12-10-10-10--10h12-10------------------------------|
------------------------------------12--------------------------------------|
----------------------------------------------------------------------------|
----------------------------------------------------------------------------|
----------------------------------------------------------------------------|
----------------------------------------------------------------------------|

Back to intro riff
So now you've got it...

Chorus as usual

Ending is the same Riff, slowed down to fade.
Enjoy guys,
God bless you ppl who read this and play this. ;)

Don't think my ex-girl would ever read this though I saw her at the hypermarket today.
Well, hopefully one day she does, dedicated to you Amanda.
Tap to rate this tab
# A B C D E F G H I J K L M N O P Q R S T U V W X Y Z