Song name
# A B C D E F G H I J K L M N O P Q R S T U V W X Y Z

Firehouse - When I Look Into Your Eyes tab

This is my first tab. All the notes are right but the finger positions aren't perfect.
Any help with that would be much appreciated. There are a couple string bends also. I
usually bend up to the 14 from the 12. For backgrounds just play power chords whole notes. 

A                C#                D 

----------------|-----------------|-----------------|
----------------|-----------------|-----------------|
----------------|-----------------|-----------------|
----------------|-----------------|-----------------|
----------------|-----------------|-----------------|
----------------|-----------------|-----------------|


D           A               C#                D                   D

123   4 +   1 + 2 +-  4 +   1 + 2 + 3   4 +   1  + 2 +  3 + 4  +   1 +  2 + 3   +-
----------|---------------|-----------------|--------------------|-------------------|
----------|---------------|-----------------|-10-----10-----10---|---12-----12--14---|
----------|-7-6-7-9---7-6-|-7-9-7-6-7---6-7-|----6-7----6-7----6-|-9----6-9----------| 
------7-9-|---------------|-----------------|--------------------|-------------------|
----------|---------------|-----------------|--------------------|-------------------|
----------|---------------|-----------------|--------------------|-------------------|


A                 C#                D                 D
 
-1  2  3  4       1  2    3  4      1  2    3  4      1 2 3  +  4  +
----------------|-----------------|-----------------|--------------9-|
-14-------------|-12------14------|-10------14------|--------10-12---|
----------------|-----------------|-----------------|-9--------------|
----------------|-----------------|-----------------|----------------|
----------------|-----------------|-----------------|----------------|
----------------|-----------------|-----------------|----------------|
 

 A                C#              D                       D

 1 2 3    4  +    1 2 3 4     +   1  +  2 +  3  + 4  +    1  +  a  2  +  a 3  + a 4 + a
-12-------10-9--|-10----------9-|-12-10-9----10-9-------|------------------------------|
----------------|---------------|---------12------12-10-|-14-12-10-12-10-9-10-9-7-9-7-5|
----------------|---------------|-----------------------|------------------------------|
----------------|---------------|-----------------------|------------------------------|
----------------|---------------|-----------------------|------------------------------|
----------------|---------------|-----------------------|------------------------------|
Tap to rate this tab
 
# A B C D E F G H I J K L M N O P Q R S T U V W X Y Z