Song name
# A B C D E F G H I J K L M N O P Q R S T U V W X Y Z

Firehouse - Reaching For The Sky tab

-------------------------------------------------------------------------------
			     SONG NAME - Band Name
-------------------------------------------------------------------------------
Tabbed by: DJ Skorpion (Joseph)
Email: dj.skorpion@gmail.com

Tuning: EADGBe (all tuned down abt 1/2 step to 1 step)

This was tabbed out using a de-tuned guitar. so the starting key may not be correct.
sounds correct by tune tho :P. repeat as many times as needed. i got this from listening
to e 30 second CD sample from a music site.

e|-------------------------------------------------------------------------|
B|-------------------------------------------------------------------------|
G|---4----------76---------------------------------------------------------|
D|--4-4---5----7--7----9----5----7---2-------------------------------------|
A|-2-----5-5--7----7--9-9--5-5--7---2--------------------------------------|
E|------3----5-------7----3----5--0----------------------------------------|

| /  slide up
| \  slide down
| h  hammer-on
| p  pull-off
| ~  vibrato
| +  harmonic
| x  Mute note
============================================================================
Tap to rate this tab
 
# A B C D E F G H I J K L M N O P Q R S T U V W X Y Z