Song name
# A B C D E F G H I J K L M N O P Q R S T U V W X Y Z

Fireign - Killer In The Night tab

                       "!KILLER IN THE NIGHT!"
                  Tabbed By: Eskimobob12@hotmail.com


INTRO X6 (Tremolo Picking 16th Notes)

E---------------------------------------|
B---------------------------------------|
G---------------------------------------|
D----10-9-7-9-7----------------7--------|
A--7------------10-9---10-9-10---10-9-5-|
E--------------------8------------------|


vERSE RIFF (shot in the dark, infamous killer in the night...)

E--------------------------------                    -----------|
B--------------------------------                    -----------|
G-----------------------------5-5                    -----------|
D--9----9-----9-------9-------5-5  FILL (trem pick): -7-9-10-12-|
A--7----7-----7-------7-----3---3                    -----------|
E---0-0---0-0---0-0-0---0-0------                    -----------|
    p p   p p   p p p   p p


Pre-Chorus Riff (Waiting.. for you in the dark, Debating..)

E------------------------------          ------------------------------|
B------------------------------          ------------------------------|
G------------------------------ X2 then  ------------------------------|
D--2-----2-----2---5-----7-5-4-          --4-----4-----4---7-----9-7-6-|
A--0-0-0-0-0-0-0-0-3--5--5-3-2-          --2-2-2-2-2-2-2-2-5--7--7-5-4-|
E---------------------3--------          ---------------------5--------|
     p p   p p   p                           p p   p p   p


FILL BACK TO INTRO RIFF:

E-----------------------------------------------------|
B-----------------------------------------------------|
G-----------------------------------------------------|
D--5-5-5-5-5-5-5-5-5-5-5-5-5-5-5-5------------------7-|
A--3-3-3-3-3-3-3-3-3-3-3-3-3-3-3-3--55555555555555555-|
E-----------------------------------------------------|
     p p   p p   p p p   p p p   p  pppppppppppppppp


BRIDGE RIFF (Solo)

E------     ---------------|
B------     ---------------|
G------     ---------------|
D------  X4 ------7---5----|
A--2---     --2---5---3--5-|
E--0---     --0----------3-|


   Offical Website : http://www.fireign.com <---Check It out. They Have samples of their songs there.

  KILLER OF A SONG !
Tap to rate this tab
# A B C D E F G H I J K L M N O P Q R S T U V W X Y Z