Song name
# A B C D E F G H I J K L M N O P Q R S T U V W X Y Z

Firewater - Get Out Of My Head tab

----------------------Firewater------------------------

"Get out of my head"

:1

e:-----------------------------------------------------|
B:-----------------------------------------------------|
G:-----------------------------------------------------|
D:-----------------------------------------------------|
A:-------9---------------------------------------------|
E:---5---7---------------------------------------------|

:2

e:-----------------------------------------------------|
B:-----------------------------------------------------|
G:---6/7---7-------------------------------------------|
D:---6/7---7-------------------------------------------|
A:---4/5---5-------9-----------------------------------|
E:-------------5---7-----------------------------------|

:3

e:-----------------------------------------------------|
B:-----------------------------------------------------|
G:---6/7---7-------------------------------------------|
D:---6/7---7-------------------------------------------|
A:---4/5---5-------9---7---5---------------------------|
E:-------------5---7---5---3---------------------------|

:4

e:-----------------------------------------------------|
B:---4---4-4---5--h7--p5---4-4---3--h5--p3---2---------|
G:-----------------------------------------------------|
D:-----------------------------------------------------|
A:-----------------------------------------------------|
E:-----------------------------------------------------|

:5

e:-----------------------------------------------------|
B:---4---7-7---5---5---3-3--5--------------------------|
G:-----------------------------------------------------|
D:-----------------------------------------------------|
A:-----------------------------------------------------|
E:-----------------------------------------------------|
Tap to rate this tab
 
# A B C D E F G H I J K L M N O P Q R S T U V W X Y Z