Song name
# A B C D E F G H I J K L M N O P Q R S T U V W X Y Z

Firewater - Song That Saved My Life tab

Help us improve GuitareTab! Take a short survey!
i want to thank you for the song that saved my live tonight
#------------------------------------------------------------------------#
#  ok, this was the first firewater song i figerd out.it sounds better   # 
# on  a 12string guitar, it still sound fine on a 6 string.              #
# any questions comments email me at coconut_joes_666@hotmail.com        #
#or at myspace.com/bauhaus_1919                                          #
--------------------------------------------------------------------------            


e---------------------------------------x
B---------------------------------------x
G------0-----------0--------6-------5---x
D----9---9-------7---7-----7--7----7--7-x
A---7----------5---------0--------0-----x
E---------------------------------------x

e--------------------------------------------x
B--------------------------------------------x
G------0-----------0-----------6--------5----x
D----9---9-------7---7--------7--7-----7--7--x
A---7----------5------------7---------7------x
E--------------------------------------------x
Play in Background
e------------------------x
B-12~---15~---14~---13~--x
G------------------------x
D------------------------x
A------------------------x
E------------------------x
Lyrics
I want to thank you for the song that saved my life tonight
Related for Song That Saved My Life tab