Guitaretab - guitar tabs
Song name
# A B C D E F G H I J K L M N O P Q R S T U V W X Y Z

Firewind - Ready To Strike tab

Band: King Kobra
SONG: READY TO STRIKE
ALBUM: READY TO STRIKE(1985)

Here is another kick ass song that probably nobody knows
 
INTRO CLEAN GUITAR (REPEAT UNTIL INTRO ENDS):
(Listen to song for timing)

E|------------------|------------------|-----------------------------|
B|----------3-------|----------3-------|---------3-------------3-----|
G|------3-------3---|------3-------3---|-----3-------3-----3-------3-|
D|----5---7---7---5-|----3---7---7---3-|---5---7---7-----5---7---7---|
A|------------------|------------------|-----------------------------|
E|--3---------------|-3----------------|-3-------------3-------------|

 

E|-----------------|---------------------|---------------------------|
B|-----------3-----|---------------------|-----------3---------------|
G|---------5---5---|-------------7-------|---------2---2---5---------|
D|-------5-------5-|---------5-7---7-----|-------4-------4-----------|
A|-6-5-3-----------|-3-----7---------9---|-5---5---------------------|
E|-----------------|---6-5-------------9-|---5-----------------------|

 

INTRO LEAD GUITAR:

E|----------------------------|14b15----------------|-------------------|
B|----------------------------|------15-13----------|16-15-16p15-14---15|
G|----------------------------|------------15-14-15-|--------------14---|
D|6-10-12--10-12-13--10-8-7-12|---------------------|-------------------|
A|----------------------------|---------------------|-------------------|
E|----------------------------|---------------------|-------------------|

 

AFTER KEYBOARD STUFF:

 
[ Tab from: http://www.guitaretab.com/f/firewind/106320.html ]
E|--------------------------|-14b15----------------|--------------------|
B|--------------------------|-------15-13----------|-16-15-16p15-14---15|
G|--------------------------|-------------15-14-15-|----------------14--|
D|--7-7-8-10--10-8-7--7-5-4-|----------------------|--------------------|
A|--------------------------|----------------------|--------------------|
E|--------------------------|----------------------|--------------------|

 

 

DISTORTION GUITAR 1:

This rhythm is a little tricky but with practice is possible. 
(No palm mutes but there pretty obvious)) 

E|----------------|--------------------------------------------------|
B|----------------|--------------------------------------------------|
G|--3-3^-5p3---2-|-3-3--5p3---2--3-3-----2----0-----2-3-3--5p3---2--|
D|--5-5---3-3-5-3-|-5-5--3-3-5-3--5-5-----3----0-----3-5-5--3-3-5-3--|
A|----------------|--------------------------------------------------|
E|----------------|-------------------3-3---3-3--3-3-----------------|

DRUMS ENTER HERE

 
E|----------------|--------------|------------------------------------|
B|----------------|--------------|------------------------------------|
G|----------------|--------------|------------------------------------|
D|--3-3^5p3---2--|-3-3^5p3---2-|------------------------------------|
A|--5-5--3-3-5-3--|-5-5-3-3-5-3--|-------5---6p5-----------1p0--------|
E|----------------|--------------|-3-5-6---5-----8-6-5-3-1-----1-1-2-3|

VERSE BEGINS

 

I THINK IT IS A SECOND GUITAR ON THE INTRO WHICH IS PLAYING THE 8TH NOTES

VERSE CHORDS: Gm, Eb and F, PRE-CHORUS CHORDS ARE: Bb, Am, Gm, Eb, C and D 

CHORUS CORDS : Gm, Eb, C, Gm and F 

I'll figure out the solo later.

Related for Ready To Strike tab