Song name
# A B C D E F G H I J K L M N O P Q R S T U V W X Y Z

Firewind - Mercenary Man Acoustic tab

-------------------------------------------------------------------------------
			     Mercenary Man - Firewind
-------------------------------------------------------------------------------
Tabbed by: Mr. Crabs
Email: Finchjams@hotmail.com

I was just trying to figure out how Firewind played this song Unplugged on Youtube so i 
worked out the harmonies and just need to play them together at the same time for the 
sound. I don't know exactly how Gus G does the pullofs he adds, but the notes should be correct.

Tuning: D Standard

e|----7--8----10--8--10-8-----7---------------7--8----10--8--10-8-----7-7~-|
B|-8--8--10---12--10-12-10--8-8--6--5~-----8--8--10---12--10-12-10--8-8-8~-|
G|-9------------------------9----7--5~-----9------------------------9------|
D|-------------------------------------------------------------------------|
A|-------------------------------------------------------------------------|
E|-------------------------------------------------------------------------|

e|----7--8----10--8--10-8-----7-----------------8--10--12-10-12-10----------|
B|-8--8--10---12--10-12-10--8-8--6--5~------10---------------------10-8--10-|
G|-9------------------------9----7--5~----------5--7---9--7--9--7-----------|
D|------------------------------------------7----------------------7--5--7--|
A|--------------------------------------------------------------------------|
E|--------------------------------------------------------------------------|

| /  slide up
| \  slide down
| h  hammer-on
| p  pull-off
| ~  vibrato
| +  harmonic
| x  Mute note
===============================================================================
Tap to rate this tab
# A B C D E F G H I J K L M N O P Q R S T U V W X Y Z