Song name
# A B C D E F G H I J K L M N O P Q R S T U V W X Y Z

Firewind - Mercenary Man tab

TABBED BY ELIAS STASI          TAB KEY:

MERCENARY MAN-FIREWIND:        /=slide up,pm=palm mute
                               \=slide down,b=bend
SOLO:

e--------------------------------------------|
B-5/-9-8--9-8--------------------------------|
G-------8----8\-6----9-7-6-9-7-6-9-7-6-9-7-6-|
D--------------------------------------------|
A--------------------------------------------|
E--------------------------------------------|


e-----------------------------|
B-5/-9-8--5/-9-8--------15-14-|
G-------8-------8/-16-19------|
D-----------------------------|
A-----------------------------|
E-----------------------------|


e---------------------|
B-5-6-6--6-7-7--7-8-8-|
G---------------------|
D---------------------|
A---------------------|
E---------------------|You have to be very quick


e-----------------------------|
B-9-8--9-8--------------------|
G----8----8/-9b--10-11pm--15b-|
D-----------------------------|
A-----------------------------|
E-----------------------------|


                 THE END!!!!!!!
Tap to rate this tab
# A B C D E F G H I J K L M N O P Q R S T U V W X Y Z