Song name
# A B C D E F G H I J K L M N O P Q R S T U V W X Y Z

Firewind - Losing My Mind tab

D Tuning (1)DAFCGd(6)

|---------|  |-------|  |-------|  |-------|
|-------0-|  |-------|  |-------|  |-------|
|-----2---|  |-----2-|  |-------|  |-------|
|---2-----|  |---2---|  |-----5-|  |-----7-|
|-0-------|  |-0-----|  |---7---|  |---7---|
|---------|  |-------|  |-5-----|  |-5-----|

|---------|  |-------|  |------------|
|-------0-|  |-------|  |------------|
|-----2---|  |-----2-|  |------------|
|---2-----|  |---2---|  |-----5------|
|-0-------|  |-0-----|  |---7--------|
|---------|  |-------|  |-5-----3-2v-|
Tap to rate this tab
 
# A B C D E F G H I J K L M N O P Q R S T U V W X Y Z