Song name
# A B C D E F G H I J K L M N O P Q R S T U V W X Y Z

Firewind - Till The End Of Time tab

There's a tab out there that is half a step down, and it's missing the first part of the solo.
This one is mostly for people without Guitar Pro.
Taken out of Gus G's Young guitar appearance.

D Tuning (1)DAFCGd(6)


|-----------------------------------------10------------------------|
|-10b11-11-11-11-11-11-11-11r10-8-10v--7-8--8-7b8r7-----------------|
|--------------------------------------------------9-7---7-9-9/11\9-|
|-----------------------------------------------------9v------------|
|-------------------------------------------------------------------|
|-------------------------------------------------------------------|

|-0-3-0-5-0-7-0-8-0-10-0-12-0-14-0-15-0-17-0-19\-|
|------------------------------------------------|
|------------------------------------------------|
|------------------------------------------------|
|------------------------------------------------|
|------------------------------------------------|

|-/15-19-15---------15-19-15---------15-19-15---------|
|----------19-17-19---------19-17-19---------19-17-19-|
|-----------------------------------------------------|
|-----------------------------------------------------|
|-----------------------------------------------------|
|-----------------------------------------------------|

|-15-20-15---------|      |-17-22---------|
|---------19-17-19-|      |------19-17-19-|
|------------------|      |---------------|
|------------------|  x3  |---------------| x3
|------------------|      |---------------|
|------------------|      |---------------|

|-17-22b24-22ph-22\17/19-15-17--------|
|------------------------------13-15v-|
|-------------------------------------|
|-------------------------------------|
|-------------------------------------|
|-------------------------------------|

|----------------------------------------------------------|
|-/12--12-15--12-15--12-15--12-15--12-15--12-15------------|
|----14-----14-----15-----15-----15-----14-----14-12---12v-|
|---------------------------------------------------14-----|
|----------------------------------------------------------|
|----------------------------------------------------------|


V: Vibrato
B: Bend
R: Release bend
Ph: Pinch harmonic
/: Slide up
\: Slide down
Xn: Play n times
Tap to rate this tab
# A B C D E F G H I J K L M N O P Q R S T U V W X Y Z