Song name
# A B C D E F G H I J K L M N O P Q R S T U V W X Y Z

Firewind - Falling To Pieces tab

FALLING TO PIECES
THORNLEY

TABBED BY sweet_inc


Tuning: Open G with a dropped C (1/2 step down) (C-G-D-G-B-d)


The opening riff is played so that the bending note is played behind the nut on the top string...
this will be represented by an N

guitar1
d|-----------------------------------|
B|-----------------------------------|
G|-----------------------------------|
D|-------2-------2-------2-------2---|
G|-----------------------------------|
C|-0-N-0---0-N-0---0-N-0---0-N-0-----|

guitar2 then comes in with
d|---------|
B|---------|
G|---------|
D|---------|
G|-0-0-----|
C|-0-0-----| and then joins in with guitar1

end riff to intro
d|---------------------|
B|---------------------|
G|---------------------|
D|-----10------8-------|
G|---------------------|
C|-8-8-----6-6---------|

VERSE
d|---------------------------------------------------------|
B|---------------------------------------------------------|
G|---------------------------------------------------------|
D|---------------------------------------------------------|
G|-0-0--0-0-0--0-0-0--0--0--0--0-0--0-0-0--0-0-0--0--0-----|
C|-0-0--0-0-0--0-0-0--0--0--0--0-0--0-0-0--0-0-0--0--0-----|

d|-------------------------------------------------------|
B|-------------------------------------------------------|
G|-------------------------------------------------------|
D|-------------------------------------------------------|
G|--4-4--4-4-4--4-3-3--3-3--3-0-0--0-0-0--0-0-0--0--0----|
C|--4-4--4-4-4--4-3-3--3-3--3-0-0--0-0-0--0-0-0--0--0----|

chorus
d|----------------------------------------------------------------------|
B|-0-0-0-0--------------------------0-0-0-------------------------------|
G|-0-0-0-0--------------------------0-0-0-------------------------------|
D|-0-0-0-0--7-7-7-------2-------2---0-0-0--4-4-4------2-------2---------|
G|-0-0-0-0--5-5-5-------------------0-0-0--2-2-2------------------------|
C|----------5-5-5---N-0---0-N-0------------2-2-2--N-0---0-N-0-----------|

d|---------------------|
B|---------------------|
G|---------------------|
D|-----10------8-------|
G|---------------------|
C|-8-8-----6-6---------|

BRIDGE
d|----------------------------------------------------|
B|-1-1-1-1-1--3-3-3-3-3-------------------------------|
G|-1-1-1-1-1--3-3-3-3-3-------------------------------|
D|-1-1-1-1-1--3-3-3-3-3-------------------------------| x2
G|-1-1-1-1-1--3-3-3-3-3-------------------------------|
C|-------------------------b12-b12-b12-b12-b12-b12----|

d|----------------------------------------------|
B|-1-1-1-1-1--3-3-3-3-3-------------------------|
G|-1-1-1-1-1--3-3-3-3-3-------------------------|
D|-1-1-1-1-1--3-3-3-3-3-------------------------|
G|-1-1-1-1-1--3-3-3-3-3-------------------------|
C|-------------------------b5-b5-b5-b5-b5-b5----|

Bridge Pt2
d|--------------------------------------------------------------|
B|--------------------------------------------------------------|
G|--------------------------------------------------------------|
D|-------2-------2-------2---------------2-------2-------2------|
G|-------------------------0-0-0----------------------------0-0-|
C|-0-N-0---0-N-0---0-N-0---0-0-0---0-N-0---0-N-0---0-N-0----0-0-|

outro
d|---------------------------------------------------------------------------|
B|---------------------------------------------------------------------------|
G|---------------------------------------------------------------------------|
D|---------------------------------------------------------------------------|
G|-------------------------b12-b12-b12-b12-b12-b12---------------------------|
C|-b12-b12-b12-b12-b12-b12-b12-b12-b12-b12-b12-b12-b12-b12-b12-b12-b12-b12---|

d|---------------------|
B|---------------------|
G|---------------------|
D|-----10------8-------|
G|---------------------|
C|-8-8-----6-6---------|
Tap to rate this tab
# A B C D E F G H I J K L M N O P Q R S T U V W X Y Z