Song name
# A B C D E F G H I J K L M N O P Q R S T U V W X Y Z

Firewind - I Will Fight Alone tab

E-5----4----0----4/5/6-------------------------------------------------|
A-7----6----0----4/5/6----11----8/10-----11----7/10----11----6/10--11v-|
D----------------------------------------------------------------------|
G----------------------------------------------------------------------|
B----------------------------------------------------------------------|
e----------------------------------------------------------------------|

-3--3----0----5----4----0----4/5/6----4----1----0----4----5----6--------|
-3--3---------7----6----0----4/5/6----2----3----0----4----5----6--------|
------------------------------------------------------------------------|
------------------------------------------------------------------------|
------------------------------------------------------------------14/16-|
------------------------------------------------------------------------|

-----------------------------------------------------------------------|
-----------------------------------------------------------------------|
-----------------------------------------------------------------------|
-----------------------------------------------------------------------|
----12----9----10----14----12----12----9----13----12----9----8---------|
-----------------------------------------------------------------------|

-----------------------------------------------------------------------|
-----------------------------------------------------------------------|
-----------------------------------------------------------------------|
--0--12--11--10--0--10--9--8--0--9--8--7--0--8--7--6-------------------|
-----------------------------------------------------------------------|
-----------------------------------------------------------------------|

Dont know this part but i'm pretty sure it ends like this.

-----------------------------------------------------------------------|
-----------------------------------------------------------------------|
-----------------------------------------------------------------------|
---5v----0----3----5---------------------------------------------------|
---7v----0----3----5---------------------------------------------------|
-----------------------------------------------------------------------|

Then

-14----13----------------------------------------------------------------|
-15----14----------------------------------------------------------------|
-------------------------------------------------------------------------|
-------------------------------------------------------------------------|
-------------15^---------------------------------------------------------|
-------------------------------------------------------------------------|
Tap to rate this tab
# A B C D E F G H I J K L M N O P Q R S T U V W X Y Z