Song name
# A B C D E F G H I J K L M N O P Q R S T U V W X Y Z

Fireworks - Five Years chords

Highlighted       Show chord diagrams
Tuning:Standard EADGBe 

e|--7---6---7---9---7--6--|
B|--7---7---9---11--9--7--|
G|--8---8---9---11--9--8--|
D|--9---8---9---11--9--8--|
A|--9---6---7---9---7--6--|
E|--7---x---x---x---x--x--|
    B  Ebm  E   F#  E Ebm

Listen to the song for the strumming pattern, its easy.

I should have the whole solo soon. 

Here is the beginning of the solo.
e|----------------------------------------|
B|----------------------------------------|
G|----------------------------------------|
D|--9b9b9b8---8b8b8b6---------------------|
A|----------------------2/6-7-6-9-7-6-----|
E|------------------------------------7---|
Tap to rate this tab
# A B C D E F G H I J K L M N O P Q R S T U V W X Y Z