Song name
# A B C D E F G H I J K L M N O P Q R S T U V W X Y Z

Firm - Make Up Or Break Up tab

Make up or Break up
by; The Firm (with Jimmy Page)
There is only 2 tabs for the Firm so I decided to put an easy one up as my first tab.
Intro/Verse::
e||----------------|-----------------|--------------------|
b||----------------|-----------------|--------------------|
g||.---------------|-----------------|--------------------|
d||.------7--------|-------7---------|-------7-----10--12-|
a||-------7--------|-------7---------|-------7-----10--12-|
E||--5-5--5--------|--5-5--5---------|--5-5--5--5--8---10-|

e---------------|-----------------|---------------------||
b---------------|-----------------|---------------------||
g---------------|-----------------|--------------------.||
d-------7-------|-------7---------|-------7-----12--10-.||
a-------7-------|-------7---------|-------7-----12--10--||
E--5-5--5-------|--5-5--5---------|--5-5--5--5--10--8---||
Repeat that for a while.  Then,
Pre-chorus::
e------------|-----------|
b------------|-----------|
g------------|-----------|
d--7---------|--5--------|
a--7---------|--5--------|
E--5---------|--3--------|

The chorus bit just goes back to this::
e||----------------|-----------------|--------------------|
b||----------------|-----------------|--------------------|
g||.---------------|-----------------|--------------------|
d||.------7--------|-------7---------|-------7-----10--12-|
a||-------7--------|-------7---------|-------7-----10--12-|
E||--5-5--5--------|--5-5--5---------|--5-5--5--5--8---10-|

e---------------|-----------------|---------------------||
b---------------|-----------------|---------------------||
g---------------|-----------------|--------------------.||
d-------7-------|-------7---------|-------7-----12--10-.||
a-------7-------|-------7---------|-------7-----12--10--||
E--5-5--5-------|--5-5--5---------|--5-5--5--5--10--8---||

Repeat for the rest of the song.
I didn't do the solo, ill get around to it later.
Tap to rate this tab
 
# A B C D E F G H I J K L M N O P Q R S T U V W X Y Z