Song name
# A B C D E F G H I J K L M N O P Q R S T U V W X Y Z

First Aid Kit - Jagadamba You Might tab

   ________________________
  / First Aid Kit         /
 / Jagadamba, You Might  /
/_______________________/


  Am            E
|----------------------------|
|-------1-------------0------|
|----2-----0h1-----1-----0h2-|
|-2-------------2------------|
|--------------(2)-----------|
|----------------------------|

This little figure is played by the main guitar all the way through the song
(except for the Chorus, of course).
The first hammer on "0h1" is very fast and isn't always played.
The note "(2)" sounds when switching to the E chord [x2210x].



 Chorus:
In the chorus the second guitar also plays in.

 main guitar's part:
********************
  F                          Am
|--------------------------|-------------------------|
|-------1-----------1------|-------1-----------1-----|
|----2-----2-----2-----0h2-|----2-----2-----2-----1--|
|-3-----------3------------|-2-----------2-----------|
|--------------------------|-------------------------|
|--------------------------|-------------------------|

  E                          Am
|--------------------------|--------------------------|
|-------0-----------0------|-------1-----------1------|
|----1-----1-----1-----0h2-|----2-----2-----2-----0h2-|
|-2-----------2------------|-2-----------2------------|
|--------------------------|--------------------------|
|--------------------------|--------------------------|

  F                         Am                        E
|-------------------------|-------------------------|--------------------------|
|-------1-----------1-----|-------1-----------1-----|-------0-----------0------|
|----2-----2-----2----0h2-|----2-----2-----2-----1--|----1-----1-----1-----0h2-|
|-3-----------3-----------|-2-----------2-----------|-2-----------2------------|
|-------------------------|-------------------------|--------------------------|
|-------------------------|-------------------------|--------------------------|

  Am           E              Am           E
|---------------------------|---------------------------|
|-------1------------0------|-------1------------0------|
|----2-----0h1----1-----0h2-|----2-----0h1----1-----0h2-|
|-2------------2------------|-2------------2------------|
|-------------(2)-----------|-------------(2)-----------|
|---------------------------|---------------------------|


 second guitar's part:
**********************
  F                          Am
|-------5-----------5------|-------8-----------8-----|
|----6-----6-----6-----6---|----5-----5-----5-----5--|
|-5-----------5------------|-5-----------5-----------|
|--------------------------|-------------------------|
|--------------------------|-------------------------|
|--------------------------|-------------------------|

  E                          Am
|-------4-----------4------|-------5-----------5------|
|----5-----5-----5-----5---|----5-----5-----5-----5---|
|-4-----------4------------|/5-----------5------------|
|--------------------------|--------------------------|
|--------------------------|--------------------------|
|--------------------------|--------------------------|

  F                         Am                        E
|-------5-----------5-----|-------8-----------8-----|-------4-----------4------|
|----6-----6-----6-----6--|----5-----5-----5-----5--|----5-----5-----5-----5---|
|-5-----------5-----------|-5-----------5-----------|-4-----------4------------|
|-------------------------|-------------------------|--------------------------|
|-------------------------|-------------------------|--------------------------|
|-------------------------|-------------------------|--------------------------|

  Am           E              Am           E
|-------5------------4------|-------5------------4------|
|----5-----5------5-----5---|----5-----5------5-----5---|
|/5-----------\4------------|/5-----------\4------------|
|---------------------------|---------------------------|
|---------------------------|---------------------------|
|---------------------------|---------------------------|
(For the Outro, both guitars repeat their last two bars.)



 LYRICS
**********
I see the animals run past me
You know me better than the wind
mmm mmm
Let me open the door for you
You might see the sun
mmm mmm
Your little mama and your papa
They'll sing lullabies for you
ooh ooh

And the seals are singing jaga-daga-da-gada-gadaga-dam-bada
Coconut trees are swinging jaga-daga-da-gada-gadaga-dam-bada-ah

The reasons for this fight's forgiven
Yet we still don't want to lose
mmm mmm
But kid, don't tell me that you're frightened
This war begun long before you were born
ooh ooh ooh

And the gods are denying jaga-daga-da-gada-gadaga-dam-bada
When the wind's not lying jaga-daga-da-gada-gadaga-dam-bada-ah
ooh ooh ...



Jon Sebastian Frederiksen - 10th /November /09
Just mail me at Maitinin@gmail.com with questions, comments and corrections!
Tap to rate this tab
# A B C D E F G H I J K L M N O P Q R S T U V W X Y Z