Song name
# A B C D E F G H I J K L M N O P Q R S T U V W X Y Z

First Aid Kit - Tiger Mountain Peasant Song tab

-------------------------------------------------------------------------------
      Tiger Mountain Peasant Song - First Aid Kit (cover of Fleet Foxes)
-------------------------------------------------------------------------------
Tabbed by: Sean Thomas

Capo 5th fret
Throughout I'm going to give chords and fingerings relative to the capo, so to
get the actual chord/fingering, move up five steps. Am becomes Dm, etc. 

Each hyphen is a sixteenth note in the picking.

The standard picking form is thumb on the lowest note, index and ring finger 
on the double picks.

      EADGBE
Am:   002210
Am/D: 000210
G:    320030
Em7:  020000
F:    xx321x
C:    x32010

Intro
  Am   Am/D   G   Em7  Am      Am/D   G   Em7  Am
e|------------------------|------------------------|
B|---1-1---1-----3-----0-1|---1-1---1-----3-----0-1|
G|-----------0-----0------|-----------0-----0------|
D|----2-0---0-----0-------|----2-0---0-----0-------|
A|0-----------------2---2-|0-----------------2---2-|
E|------------3-----------|------------3-----------|

Verse
  Am       Am/D         G          Em7       Am
e|- - - - - - - - - - - - - - - - - - - - - - - -|
B|- - - 1 - 1 - - - 1 - - - - - 3 - - - - - 0 - 1|
G|- - - - - - - - - - - 0 - - - - - 0 - - - - - -|
D|- - - - 2 - 0 - - - 0 - - - - - 0 - - - - - - -|
A|0 - - - - - - - - - - - - - - - - - 2 - - - 2 -|
E|- - - - - - - - - - - - 3 - - - - - - - - - - -|
      wanderers      this morning came by

  Am       Am/D         G                 F           
e|- - - - - - - - - - - - -  -  -  -  - - - - - - - -|
B|- - - 1 - 1 - - - 1 - - -  -  -  0  - - - - - 1 - -|
G|- - - - - - - - - - - 0 -  -  -  -  - 0 - - - - - 0|
D|- - - - 2 - 0 - - - 0 - -  -  -  -  0 - 3 - - - 3 -|
A|0 - - - - - - - - - - - -  -  -  -  - - - - - - - -|
E|- - - - - - - - - - - - 3  -  -  -  - - - - - - - -|
      where do they go    graceful in the mor - ning   
  
  C           F           C           F           G 
e|- - - - - - - - - - - - - - - - - - - - - - - -|- - -  -  - - - - - -  -  - - -----------|
B|- - - 1 - - - - - 1 - 0 - - - 1 - - - - - 1 - 0|- - -  3  - 3 - - - 3  -  3 - --3-3---3-1|
G|- - - - - 0 - - - - - - - - - - - 0 - - - - - -|- - -  0  - 0 - - - 0  -  0 - --0-0---0-2|
D|- - - - 2 - 3 - - - 3 - - - - - 2 - 3 - - - 3 -|- - -  -  - - - - - -  -  - - -----------|
A|3 - - - - - - - - - - - 3 - - - - - - - - - - -|- - -  -  - - - - - -  -  - - -----------|
E|- - - - - - - - - - - - - - - - - - - - - - - -|3 - -  -  3 - 3 - - -  3  - 3 ---3-3---3-|
  light, to   ba  -  ner  fair,    to fo-llow you softly in the cold mountain air

(this picking style is maintained throughout, I'll just print the chords from here)

Am          Am/D           G         Em7    
  Through the fo  -  rest down to your grave, 

Am       Am/D        G            F 
where the birds wait and the tall gra - sses 

C     F       C     F      G
wave, they do not   know  you   anymo  -  re.  Mo -

Am    Am/D   G   Em7  Am  Am/D  G   F    C
       -     re       Mo   -   re.  Mo - re

C    F       G        C                F    G       C       Am/D                G
Dear shadow alive and well how can the body die you tell me everything anything true

Am     Am/D     G         Em7    Am       Am/D         G            F     
in the town one morning i went      staggering through premonitions of my 

C     F       C   F   G  
death i don't see any - body that dear to me

C        F      G         C                F    G       C       Am/D                G         
dear the shadow alive and well how can the body die you tell me everything anything true

Am Am/D G Em7
Am Am/D G Em7... (picking stops)

(simple strums here)
       Am    
Je -  sse

C                              
I don't know what I have done.  I'm turning myself into a demon.
C
I don't know what I have done.  I'm turning myself into a demon.

Am Am/D G Em7
La da dee dah's

Am
(Final la da dee dah)

Tap to rate this tab
# A B C D E F G H I J K L M N O P Q R S T U V W X Y Z