Guitaretab - guitar tabs
Song name
# A B C D E F G H I J K L M N O P Q R S T U V W X Y Z

Fischerspooner - All We Are tab

Good song: All we are/fischerspooner

Intro:
   A  C       A  F    
e|-0--0-------0--1--|
B|-2--1-------2--1--|
G|-2--0-------2--2--|
D|-2--2-------2--3--|
A|-0--3-------0--3--|
E|---------1-----1--|

then:
    A  C  F   A  C  F    C  A
e|--0--0--1---0--0--1----0--0--|
B|--2--1--1---2--1--1----1--2--|
G|--2--0--2---2--0--2----0--2--|
D|--2--2--3---2--2--3----2--2--|  x(3)
A|--0--3--3---0--3--3----3--0--|
E|--------1---------1----------|

Verse:
e|-0-1-0-----1-5----0-1-5--|
B|-------------------------|
G|-------------------------|
D|-------------------------|
A|-------------------------|
E|-------------------------|

Chorus:
GTR 1:
    A       C       F                    A
e|--0-------0-------1-------|            0 
B|--2-------1-------1-------|            2
G|--2-(x8)--0-(x8)--2-(x16)-|            2
D|--2-------2-------3-------| x2 end on  2
A|--0-------3-------3-------|            0
E|------------------1-------|            -

GTR 2:
e|-1-|
B|---|
G|---|
D|---| (x a lot idk how many times)
A|---|
E|---|
[ Tab from: http://www.guitaretab.com/f/fischerspooner/191004.html ]
Verse:
e|-1(alot)--5(alot)----------1(alot)--5(alot)--8(alot)|
B|----------------------------------------------------|
G|----------------------------------------------------|
D|---------------------then---------------------------|
A|----------------------------------------------------|
E|----------------------------------------------------|
^and other variations of 1 5 and 8

Chorus:
GTR 1:
    A       C       F                    A
e|--0-------0-------1-------|            0 
B|--2-------1-------1-------|            2
G|--2-(x8)--0-(x8)--2-(x16)-|            2
D|--2-------2-------3-------| x4 end on  2
A|--0-------3-------3-------|            0
E|------------------1-------|            -

GTR 2:
e|-1-5-8-|
B|-------|
G|-------|
D|-------| (x a lot each)
A|-------|
E|-------|

Bridge is variations of A, C, and F


Chorus:
GTR 1:
    A       C       F                    
e|--0-------0-------1-------|             
B|--2-------1-------1-------|            
G|--2-(x8)--0-(x8)--2-(x16)-|     
D|--2-------2-------3-------| x10 
A|--0-------3-------3-------|            
E|------------------1-------|            

GTR 2:
e|-1-5-8-|
B|-------|
G|-------|
D|-------| (x a lot each)
A|-------|
E|-------|

lemme know what you think
Related for All We Are tab
Advertisement will be closed in 10 seconds