Song name
# A B C D E F G H I J K L M N O P Q R S T U V W X Y Z

Fish - A Feast Of Consequences tab

**THIS TAB IS ONLY FOR THE ACOUSTIC GUITAR PARTS**

Hey guys, I feel like I shouldn't be posting this tab, as I am FAR from a big
fan of Fish (given that this is the only song by him that I know...) But I
really like the acoustic guitar parts in the song and couldn't find a tab for
it. So I decided to tab it out myself, enjoy :)

Tabbed By: Harry Bradshaw "Bradwash"
Email: harry_bradshaw7@yahoo.co.uk

Legend

H - hammer on (next note is hammered)
P - pull off (pull the current note off)
x - dead note
() - tied notes
LR---> - let ring

Standard Tuning| EADGBE

Tempo: (roughly) 120 BPM

                     INTRO/VERSE #1

E|-0--0-0--0-|-0-0--0--0-0-|-0--0--0-0-0-|-0--0--0----------|
B|-0--0-0--0-|-0-0--0--0-0-|-0--0--0-0-0-|-0--0--0----------| <-- This is
G|-1--1-1--1-|-4-4--4--4-4-|-2--2--2-0-2-|-7--7--6----------|     played 6
D|-2--2-2--2-|-4-4--4--4-4-|-2--2--2-0-2-|-7--7--7--------0-|     times
A|-2--2-2--2-|-x-x--x--x-x-|-0--0--0-0-0-|-5--5--7--0-H-2---|
E|-0--0-0--0-|-3-3--3--3-3-|-------------|-------5----------|

That final lick differs a bit through the repeats, but he sticks to that
general idea, I just like to improvise instead

                 PRE-CHORUS #1

   LR--------------->  LR----->    LR---->
E|-0-------|-(0)-----|-0-------|-0-0------|
B|-0-------|-(0)-----|-0-------|-0-0------|
G|-5-------|-(5)-----|-5-------|-5-7------|
D|-5-------|-(5)-----|-5-------|-5-7------|
A|-3-------|-(3)-----|-3-------|-3-5------|
E|---------|---------|---------|----------|

   LR--------------->  LR----->
E|-0-------|-(0)-----|-0-------|-0-0--------------|
B|-0-------|-(0)-----|-0-------|-0-0--------------|
G|-5-------|-(5)-----|-5-------|-5-7--7-7-7-7-7-7-|
D|-5-------|-(5)-----|-5-------|-5-7--7-7-7-7-7-7-|
A|-3-------|-(3)-----|-3-------|-3-5--5-5-5-5-5-5-|
E|---------|---------|---------|------------------|

                      CHORUS #1

E|-----------|------------|-----------|-------------|
B|-----------|------------|-----------|-------------|
G|-5--5-5--4-|-7--7-7-6-6-|-5--5-5--4-|-------------|
D|-5--5-5--4-|-7--7-7-6-6-|-5--5-5--4-|-2---2--2--2-|
A|-3--3-3--2-|-5--5-5-4-4-|-3--3-3--2-|-2---2--2--2-|
E|-----------|------------|-----------|-0---0--0--0-|

                                       LR------->
E|-----------|------------|-----------|----------|
B|-----------|------------|-----------|----------|
G|-5--5-5--4-|-7--7-7-6-6-|-5--5-5--4-|----------|
D|-5--5-5--4-|-7--7-7-6-6-|-5--5-5--4-|-2--------|
A|-3--3-3--2-|-5--5-5-4-4-|-3--3-3--2-|-2--------|
E|-----------|------------|-----------|-0--------|

                        VERSE #2

E|-0--0-0--0-|-0-0--0--0-0-|-0--0--0-0-0-|-0--0--0----------|
B|-0--0-0--0-|-0-0--0--0-0-|-0--0--0-0-0-|-0--0--0----------| <-- This is
G|-9--9-9--9-|-4-4--4--4-4-|-2--2--2-0-2-|-7--7--6----------|     played 4
D|-9--9-9--9-|-4-4--4--4-4-|-2--2--2-0-2-|-7--7--7--------0-|     times,
A|-7--7-7--7-|-x-x--x--x-x-|-0--0--0-0-0-|-5--5--7--0-H-2---|     this time
E|-0--0-0--0-|-3-3--3--3-3-|-------------|-------5----------|     around

Same idea as the 1st verse with that final fill, the electric guitar does NOT
play the fill though

No pre-chorus this time around either, straight into the chorus...

                      CHORUS #2

E|-----------|------------|-----------|-------------|
B|-----------|------------|-----------|-------------|
G|-5--5-5--4-|-7--7-7-6-6-|-5--5-5--4-|-------------|
D|-5--5-5--4-|-7--7-7-6-6-|-5--5-5--4-|-2---2--2--2-|
A|-3--3-3--2-|-5--5-5-4-4-|-3--3-3--2-|-2---2--2--2-|
E|-----------|------------|-----------|-0---0--0--0-|

E|-----------|------------|-----------| |-0--0--0--0-|-0--0--0--0-| |
B|-----------|------------|-----------|.|-0--0--0--0-|-0--0--0--0-|.|
G|-5--5-5--4-|-7--7-7-6-6-|-5--5-5--4-| |-9--9--7--7-|-6--6--5--5-| |
D|-5--5-5--4-|-7--7-7-6-6-|-5--5-5--4-| |-9--9--7--7-|-5--5--5--5-| |
A|-3--3-3--2-|-5--5-5-4-4-|-3--3-3--2-|.|-7--7--5--5-|-4--4--3--3-|.|
E|-----------|------------|-----------| |------------|------------| |
                                           ^^        ^^        ^^
                                         this part is played 3 times until...

              LR----------------->
E|-0---0--0-|-0--------|-(0)------|
B|-0---0--0-|-0--------|-(0)------|
G|-5---4--4-|-2--------|-(2)------|
D|-5---4--4-|-2--------|-(2)------|
A|-3---2--2-|-0--------|-(0)------|
E|----------|----------|----------|

                       MID-SECTION

The acoustic guitar is barely heard in the mid-section, I don't actually
think it plays anything for the mid-section but here's the rhythm guitar's
part (just as easily played on an acoustic)

E|-----------|---------------|-----------|--------------|
B|-----------|---------------|-----------|--------------|
G|-----------|---------------|-----------|--------------|
D|-0---------|---------------|-0---------|--------------|
A|---0-2-3---|-2---1---1-1-3-|---0-2-3---|-2---1--0-----|
E|-----------|---------------|-----------|----------3-1-|

E|-----------|------------|-----------|--------------|
B|-----------|------------|-----------|--------------|
G|-----------|------------|-----------|--------------|
D|-2---------|------------|-2---------|--------------|
A|---2-4-5---|-4---3--3-5-|---2-4-5---|-4---3--2-----|
E|-----------|------------|-----------|----------5-3-|

E|-----------|--------------|-----------|--------------|
B|-----------|--------------|-----------|--------------|
G|-2---------|--------------|-2---------|--------------|
D|---2-4-5---|-4---3--3-3-5-|---2-4-5---|-4---3--2-----|
A|-----------|--------------|-----------|----------5-3-|
E|-----------|--------------|-----------|--------------|

E|-----------|--------------|-----------|--------------|
B|-----------|--------------|-----------|--------------|
G|-4---------|--------------|-4---------|------------4-|
D|---4-6-7---|-5---4--------|---4-6-7---|-5---4--5-7---|
A|-----------|--------7-5-3-|-----------|--------------|
E|-----------|--------------|-----------|--------------|

               PRE-CHORUS #2

> Those arrows just mean to strum through the chords

   LR---------------->  LR----->  LR----->
E|-0-/\----|-(0)------|-0-/\----|-0-/\----|
B|-0-(-----|-(0)------|-0-(-----|-0-(-----|
G|-5--)----|-(5)------|-5--)----|-7--)----|
D|-5-(-----|-(5)------|-5-(-----|-7-(-----|
A|-3--)----|-(3)------|-3--)----|-5--)----|
E|---------|----------|---------|---------|

   LR---------------->  LR----->  LR----->
E|-0-/\----|-(0)------|-0-/\----|-0-/\----|
B|-0-(-----|-(0)------|-0-(-----|-0-(-----|
G|-5--)----|-(5)------|-5--)----|-7--)----|
D|-5-(-----|-(5)------|-5-(-----|-7-(-----|
A|-3--)----|-(3)------|-3--)----|-5--)----|
E|---------|----------|---------|---------|

            CHORUS #3

E|-0--0-0--0-|-0--0-0-0-0-|-0--0-0--0-|-0---0--0--0-|
B|-0--0-0--0-|-0--0-0-0-0-|-0--0-0--0-|-0---0--0--0-| <--- This is played
G|-5--5-5--4-|-7--7-7-6-6-|-5--5-5--4-|-9---9--9--9-|      6 times
D|-5--5-5--4-|-7--7-7-6-6-|-5--5-5--4-|-9---9--9--9-|
A|-3--3-3--2-|-5--5-5-4-4-|-3--3-3--2-|-7---7--7--7-|
E|-----------|------------|-----------|-------------|

            CODA

E|-0--0--0--0-|-0--0--0--0-|
B|-0--0--0--0-|-0--0--0--0-| <--- This is played
G|-9--9--7--7-|-6--6--5--5-|      3 times until...
D|-9--9--7--7-|-5--5--5--5-|
A|-7--7--5--5-|-4--4--3--3-|
E|------------|------------|

              LR------------------>
E|-0---0--0-|-0--------------------|
B|-0---0--0-|-0--------------------| <--- Let the final chord ring until
G|-5---4--4-|-2--------------------|      it fades out as the end of the
D|-5---4--4-|-2--------------------|            song
A|-3---2--2-|-0--------------------|     
E|----------|----------------------|

_____________________________________________________________________________

                    LYRICS

> The titling and numbering of the verses and chorus' is just to show what
 part of the tab to refer to for the guitar


             VERSE #1
I tear a page from the book of faces,
throw your letters in an open fire.
I couldn't say that I still despise you,
but I'm finding it hard to not to.

After all that was said and done,
it's time this thing was over.
Did I want you to change your mind?
Well I don't honestly think so.

           PRE-CHORUS #1
Picking me up like a love-sick puppet,
you were dancing me over a burning flame.
You kept pulling the strings, the few strands left remaining.
You just wouldn't let me go.

       CHORUS #1
Running out of words,
running out of lines,
running out of things to say.

We were running out of heart,
running out of love,
running out of reasons to stay.

            VERSE #2
There was something so deeply flawed,
in the beginning we tried to deny it.
Just like a crack in a china doll,
a masquerade in silence.

Where we try to recognise,
just who exactly we are trying to hide.
We played our roles in this grand design,
fooled ourselves in our own disguises.

            CHORUS #2
Running out of pills,
running out of smoke,
running out of fine white wines.

We were running out of road,
running out of fuel,
running out of places to hide.

It's a feast of consequences,
facing up to a feast of consequences,
bearing down on a feast of consequences,
it looks like we're dining alone...

           MID-SECTION

          PRE-CHORUS #2
Table for one for a word drunk poet,
losing my mind in a dancing flame.
It kept pulling the strings, the few strands left remaining,
it just wouldn't let me go.

           CHORUS #3
Running out of world,
running out of hope,
running out of resources.

We were running out of time,
running out of space,
running out of tomorrows.

If we only knew then,
just what we know now,
would we have changed our minds?
Would we have changed our minds?

Running out of time,
running out of time,
running out of time.

      CODA
It's a feast of consequences,
it's a feast of consequences,
it's a feast of consequences.
Looks like I'm dining alone...

_____________________________________________________________________________

That's the entire song (only accounting for the acoustic guitar.) Hope the
lyrics come in handy, and I hope you enjoy the tab, my email's at the top,
let me know if I've messed anything up - I'm fairly certain I haven't. But
if I have, don't be shy to let me know. Enjoy the Fish y'all
Tap to rate this tab
# A B C D E F G H I J K L M N O P Q R S T U V W X Y Z