Song name
# A B C D E F G H I J K L M N O P Q R S T U V W X Y Z

Fit For A King - The Lioness tab

-------------------------------------------------------------------------------
                             The Lioness - Fit For A King
-------------------------------------------------------------------------------

Tuning:A# F A# D# G C

e|---------------------------------------------------------------------------|
B|---------------------------------------------------------------------------|
G|---------------------------------------------------------------------------|
D|---------------------------------------------------------------------------|
A|000-000-------3------000 000--------3------00000000------------------------|
E|111-111-4 1-0--1br0--111 111--4-1-0---1br0-11111111------------------------|

e|---------------------------------------------------------------------------|
B|---------------------------------------------------------------------------|
G|---------------------------------------------------------------------------|
D|---------------------------------------------------------------------------|
A|000-000-------3--------000-000-------3------0-0-0-0-0-0--------------------|
E|111-111-4-1-0--1br0----111-111-4-1-0---1br0-1-1-1-1-1-1--------------------|

e|---------------------------------------------------------------------------|
B|---------------------------------------------------------------------------|
G|---------------------------------------------------------------------------|
D|---------------------------------------------------------------------------|
A|000-000----------------000-000-------------00000000------------------------|
E|111-111----------------111-111-------------11111111------------------------|

e|---------------------------------------------------------------------------|
B|---------------------------------------------------------------------------|
G|---------------------------------------------------------------------------|
D|---------------------------------------------------------------------------|
A|---------------------------------------------------------------------------|
E|000-000-------3--------000-000-------3------0-0-0-0-0-0--------------------|
E|111-111-4-1-0--1br0----111-111-4-1-0---1br0-1-1-1-1-1-1--------------------|

e|---------------------------------------------------------------------------|
B|---------------------------------------------------------------------------|
G|---------------------------------------------------------------------------|
D|---------------------------------------------------------------------------|
A|---------------------------------------3333-----repeat-this again----------|
E|4-1-00-4-1-00--0000-0-4-1-00-4-1-00-11-------------------------------------|

e|10t----------13t-----------9t----------6t----------------------------------|
B|---------------------------------------------------------------------------|
G|---then this is before the pre-chorus--------------------------------------|
D|---------------------------------------------------------------------------|
A|---------------------------------------------------------------------------|
E|---------------------------------------------------------------------------|
   Pre Chorus 10=tens, this will make sense once you play it    
e|---------------------------------------------------------------------------|
B|5656----5656----56566868810810810810 and then repeat-----------------------|
G|----5757----5757-----------------------------------------------------------|
D|---------------------------------------------------------------------------|
A|---------------------------------------------------------------------------|
E|---------------------------------------------------------------------------|
     
e|----Chorus-you-can-figure-out-the-strumming-patteren--its-all-palmmuted----|
B|---------------------------------------------------------------------------|
G|---------------------------------------------------------------------------|
D|00--------------5------------3---------7-----------------------------------|
A|00--------------5------------3---------7-------2x--------------------------|
E|00--------------5------------3---------7-----------------------------------|

e|---------------------------------------------------------------------------|
B|---------------------------------------------------------------------------|
G|---------------------------------------------------------------------------|
D|---------------------------------------------------------------------------|
A|---------------------------------------------------------------------------|
E|---------------------------------------3333-----repeat-this again----------|
E|4-1-00-4-1-00--0000-0-4-1-00-4-1-00-11-------------------------------------|

e|10t----------13t-----------9t----------6t----------------------------------|
B|---------------------------------------------------------------------------|
G|---------------------------------------------------------------------------|
D|---------------------------------------------------------------------------|
A|---------------------------------------------------------------------------|
E|---------------------------------------------------------------------------|

e|---------------------------------------------------------------------------|
B|---------------------------------------------------------------------------|
G|---------------------------------------------------------------------------|
D|---------------------------------------------------------------------------|
A|-------------------------000-----------------------------------------------|
E|the breakdown uses this->111-the whole time and then the song repeats------|

You should be able to figure out the rest from here, everything else is the same as what I tabbed above

************************************

| /   slide up
| \   slide down
| h   hammer-on
| p   pull-off
| ~   vibrato
| +   harmonic
| x   Mute note
| b   Bend
| pb  Pre-bend
| br  Bend release
| pbr Pre-bend release
| brb Bend release bend

************************************
Tap to rate this tab
# A B C D E F G H I J K L M N O P Q R S T U V W X Y Z