Song name
# A B C D E F G H I J K L M N O P Q R S T U V W X Y Z

Fit For Rivals - Crash tab

Song:Crash
Artist:Fit For Rivals
Tab By: Con_Man

Tuning: DADGBe

e|-----------------------------------|
B|-----------------------------------|
G|-----------------------------------|
D|--6-6-6-6-6-6-6-6-6-6-6-6-6-3-3-3--|  X6
A|----------------------------3-3-3--|
D|----------------------------3-3-3--|


e|-------------------------------------------------------------------------|
B|-------------------------------------------------------------------------|
G|-------------------------------------------------------------------------|
D|----------------------------------------------------------x-x-x-x-3-3-3--|
A|--------6-6-6-------6-6-6-----6---------5-5-5-------5-5-5-x-x-x-x-3-3-3--|
D|--3-3-3-------3-3-3-------3-3---3-1-1-1-------1-1-1-------x-x-x-x-3-3-3--|



e|-----------------------------------------------------------------|
B|-----------------------------------------------------------------|
G|-----------------------------------------------------------------|
D|--6-6-6-6-6-6-6-6-6-6-6-6-3-1-1-5-5-5-5-5-5-5-5-5-5-5-5-5-1-3-3--| 
A|--------------------------3-1-1---------------------------1-3-3--|
D|--------------------------3-1-1---------------------------1-3-3--|


e|-----------------------------------------------------------|
B|-----------------------------------------------------------|
G|-----------------------------------------------------------|
D|--6-6-6-6-6-6-6-6-6-6-6-6-3-1-1-5-5-5-5-5-5-5-5-5-5-5-5-5--| 
A|--------------------------3-1-1----------------------------|
D|--------------------------3-1-1----------------------------|




e|------------------------------------------------------------------|
B|------------------------------------------------------------------|
G|------------------------------------------------------------------|
D|--3-3-3-3-3-3-3-3-3-3-3-3-3-3-3-3\1-1-1-1-1-1-1-1-1-1-1-1-1-1-1-1/|
A|--3-3-3-3-3-3-3-3-3-3-3-3-3-3-3-3\1-1-1-1-1-1-1-1-1-1-1-1-1-1-1-1/|
D|--3-3-3-3-3-3-3-3-3-3-3-3-3-3-3-3\1-1-1-1-1-1-1-1-1-1-1-1-1-1-1-1/|
PM  - - - x x x - - - x x x - - x - - - - x x x - - - x x x - - x - | 


That's All I have so far Hope to update with the rest.

ConMan 

   
Tap to rate this tab
# A B C D E F G H I J K L M N O P Q R S T U V W X Y Z