Song name
# A B C D E F G H I J K L M N O P Q R S T U V W X Y Z

Fit For Rivals - Reason tab

-------------------------------------------------------------------------------
                             Reason - Fit for Rivals
-------------------------------------------------------------------------------
Tabbed by: Wuai Bel Ree
Email: wuaibelree@gmail.com

Tuning: Drop C

Guaranteed to have some inaccuracies, as I was too lazy to investigate further once I 
suspected that something needed to be fixed.

If you want a tab for the other guitar, it's pretty much this except it uses the power 
chord that skips the 4th string more. Pretty easy to tell where.

D|-------------------------------------------------------------------------|
A|-------------------------------------------------------------------------|
F|-------------------------------------------------------------------------|
C|-------------------------------------------7771010105557557577-----------|
G|--555888333533537755588833310101010101010105558-8-8-3335335377-----------|
C|------------------------------------------------------------77-----------|

|-------------------------------------------------------------------------|
|-------------------------------------------------------------------------|
|-------------------------------------------------------------------------|
|-777101010555101010101010-77710101055575575777771010105551212121212121212|
|-5558-8-8-3338-8-8-8-8-8--5558-8-8-33353353775558-8-8-3331010101010101010|
|-------------------------------------------77----------------------------|

|-----------------------------------------------------------------------X2|
|-------------------------------------------------------------------------|
|-------------------------------------------------------------------------|
|-----------------------------------------2222222255555555----------------|
|-----------------------------------------2222222255555555----------------|
|-12--3--10--3-12--3--10--3-12--3--10--3--2222222255555555----------------|

|-------------------------------------------------------------------------|
|-------------------------------------------------------------------------|
|-------------------------------------------------------------------------|
|-7777777777777777101010101010101010101010101010105555555555555555--------|
|-55555555555555558-8-8-8-8-8-8-8-8-8-8-8-8-8-8-8-3333333333333333--------|
|-------------------------------------------------------------------------|

|-------------||--------------------------------------------------------X2|
|-------------||----------------------------------------------------------|
|-------------||----------------------------------------------------------|
|-555555555555||----------------------------------------2222222255555555--|
|-555555555555||----------------------------------------2222222255555555--|
|-555555555555||12--3--10--3-12--3--10--3-12--3--10--3--2222222255555555--|

|-------------------------------------------------------------------------|
|-------------------------------------------------------------------------|
|-------------------------------------------------------------------------|
|-7777777777777777101010101010101010101010101010105555555555555555--------|
|-55555555555555558-8-8-8-8-8-8-8-8-8-8-8-8-8-8-8-3333333333333333--------|
|-------------------------------------------------------------------------|

|-------------------------------------------------------------------------|
|-------------------------------------------------------------------------|
|-------------------------------------------------------------------------|
|-55555555-55-5-3-777777777777777710101010101010101010101010101010--------|
|-55555555-55-5-3-55555555555555558-8-8-8-8-8-8-8-8-8-8-8-8-8-8-8---------|
|-55555555-55-5-3---------------------------------------------------------|

|-----------------------------|-------------------------------------------|
|-----------------------------|-------------------------------------------|
|-----------------------------|1414141477771414141414141414121214141414---|
|-5555555555555555555555555555|x-x-x-x-xxxxx-x-x-x-x-x-x-x-x-x-x-x-x-x----|
|-3333333333333333555555555555|1212121255551212121212121212101012121212---|
|-----------------555555555555|-------------------------------------------|

|-----------------------------------------------------------------------X2|
|-------------------------------------------------------------------------|
|-7777141414141414101012121212101010109999777712121212101010101414-14-12--|
|-xxxxx-x-x-x-x-x-x-x-x-x-x-x-x-x-x-x-xxxxxxxxx-x-x-x-x-x-x-x-x-x--x--x---|
|-55551212121212128-8-101010108-8-8-8-77775555101010108-8-8-8-1212-12-10--|
|-------------------------------------------------------------------------|

|-------------------------------------------------------------------------|
|-------------------------------------------------------------------------|
|-------------------------------------------------------------------------|
|-------------------------------------------------------------------------|
|-55588833353353775558883331010101010101010-------------------------------|
|-------------------------------------------------------------------------|

|-------------------------------------------------------------------------|
|-------------------------------------------------------------------------|
|-------------------------------------------------------------------------|
|-7777777777777777101010101010101010101010101010105555555555555555--------|
|-55555555555555558-8-8-8-8-8-8-8-8-8-8-8-8-8-8-8-3333333333333333--------|
|-------------------------------------------------------------------------|

|-------------------------------------------------------------------------|
|-------------------------------------------------------------------------|
|-------------------------------------------------------------------------|
|-55555555-55-5-3-777777777777777710101010101010101010101010101010--------|
|-55555555-55-5-3-55555555555555558-8-8-8-8-8-8-8-8-8-8-8-8-8-8-8---------|
|-55555555-55-5-3---------------------------------------------------------|

|-----------------------------|-------------------------------------------|
|-----------------------------|-------------------------------------------|
|-----------------------------|-------------------------------------------|
|-5555555555555555555555555555|7-7-7-7-7-7-7-7777-10-10-10-10-10-10-10----|
|-3333333333333333555555555555|5-5-5-5-5-5-5-5555-8--8--8--8--8--8--8-----|
|-----------------555555555555|-------------------------------------------|

|------------------------------------------------X2-----------------------|
|-------------------------------------------------------------------------|
|-------------------------------------------------------------------------|
|-10101010-5-5-5-5-5-5-5-5555-5-5-5-5-5-5-5-3-----------------------------|
|-8-8-8-8--3-3-3-3-3-3-3-3333-5-5-5-5-5-5-5-3-----2nd time might end------|
|-----------------------------5-5-5-5-5-5-5-3-----without the 3 bar chord-|

|-------------------------------------------------------------------------|
|-------------------------------------------------------------------------|
|-------------------------------------------------------------------------|
|--------------------77-1010-55-------------------------------------------|
|--5558883335335377--55-8-8--35-------------------------------------------|
|-------------------------------------------------------------------------|

Seriously, I'm not a very good tabber, guys. Don't make me be the sole tabber for this 
band on the entire Internet. (AND I'M TALKING ABOUT MORE THAN JUST "CRASH".)
Tap to rate this tab
# A B C D E F G H I J K L M N O P Q R S T U V W X Y Z