Song name
# A B C D E F G H I J K L M N O P Q R S T U V W X Y Z

Fit For Rivals - Damage tab

Hey all :D here is my tab for Damage ... It's an awesome song and awesome band.. more 
tabs should be on the internet for them... anyway, here it is... there might be some mistakes




INTRO [x3]:
D|---------------------------------------------------------------------------------------------|
A|--10-----------10/13-------------------------------------------------------------------------|
F|---9-------------9/12-12-12-12-12-12\11-11-11-11-11-11-11\10-10-10-10-10-10-10---9-9-9-------|
C|---7------------7/10-10-10-10-10-10\11-11-11-11-11-11-11\10-10-10-10-10-10-10---9-9-9--------|
G|---7-7-7-7-7-7/10-10-10-10-10-10\-9---9---9---9---9---9---9\8---8---8--8---8---8--8---7-7-7--|
C|---7-7-7-7-7-7/10-10-10-10-10-10-------------------------------------------------------------|

“SOLO” x2:
D|----------------------------5------------------------------------|
A|-----------------------------------------------------------------|
F|--7b9r--5-------7b9r--5-------7b9r--5----------------------------|
C|------------7------------------------------7----5h7--------------|
G|-----------------------------------------------------5h7---------|
C|---------------------------------------------------------5h7-----|

VERSE [PALM MUTE] x4: (RHYTM
D|-------------------------------------------------------------------------------------|
A|-------------------------------------------------------------------------------------|
F|-------------------------------------------------------------------------------------|
C|----5-5-5-5-5-5-5-5-5-5-5-5-5-5-5-5-5-5-5-5-5-5-5-5-5-5-5-5-5------------------------|
G|--7-7-7-7-7-7-7-7-7-7-7-7-7-7-7-7-7-7-7-7-7-7-7-7-7-7-7-7-7--------------------------|
C|-------------------------------------------------------------------------------------|

Pre Chorus:  (palm mute)
D|-------------------------------------------------------------------------------------|
A|-------------------------------------------------------------------------------------|
F|-------------------------------------------------------------------------------------|
C|--7-7-7-7-7-7-7-7-5-5-5-5-5-5-5-5-4-4-4-4-4-4-4-4-3-3-3-3-3-3-3-3--------------------|
G|--7-7-7-7-7-7-7-7-5-5-5-5-5-5-5-5-4-4-4-4-4-4-4-4-3-3-3-3-3-3-3-3--------------------|
C|--7-7-7-7-7-7-7-7-5-5-5-5-5-5-5-5-4-4-4-4-4-4-4-4-3-3-3-3-3-3-3-3--------------------|


Pre Chorus:
D|--8-8\7-7---8-8/10-10--------|
A|-----------------------------|
F|--5-5\4-4---5-5/7---7--------|
C|-----------------------------|
G|-----------------------------|
C|-----------------------------|

CHORUS:
D|-------------------------------------------------------------------------------------------|
A|-------------------------------------------------------------------------------------------|
F|-------------------------------------------------------------------------------------------|
C|--7-7-7-7-7-7-7-7-10-10-10-10-10-10-10-10-12-12-12-12-12-12-12-12-12-12-12-12-12-12-12-12--| x2
G|--7-7-7-7-7-7-7-7-10-10-10-10-10-10-10-10-12-12-12-12-12-12-12-12-12-12-12-12-12-12-12-12--|
C|--7-7-7-7-7-7-7-7-10-10-10-10-10-10-10-10-12-12-12-12-12-12-12-12-12-12-12-12-12-12-12-12--|

VERSE x4

RIFF 1

CHORUS x2

BRIDGE [VERSE WITHOUT PALM MUTE]

RIFF 2  x2:
D|-12-12-12\10-10-10---12-12-12/15-15-15---12-12-12\10-10-10---8-8-8\7-7-7------------|
A|------------------------------------------------------------------------------------|
F|--9---9---9\7----7---7----9---9---9/12-12-12----9---9---9\7---7---7----5-5-5\4-4-4--|
C|------------------------------------------------------------------------------------|
G|------------------------------------------------------------------------------------|
C|------------------------------------------------------------------------------------|


RIFF 3:
D|-5-5-7-7-8-8-10-10-12-12-12-10-12-------------|
A|----------------------------------------------|
F|-2-2-4-4-5-5--7--7---9---9---9---7---9--------|
C|----------------------------------------------|
G|----------------------------------------------|
C|----------------------------------------------|

RIFF 4:
D|--8-8\7-7------|
A|---------------|
F|--5-5\4-4------|  x3
C|---------------|
G|---------------|
C|---------------|

CHORUS x4

END:
D|------------------------|
A|-10-----13-------15-----|
F|-9------12-------14-----|
C|-7------10-------12-----|
G|-7------10-------12-----|
C|-7------10-------12-----|
Tap to rate this tab
# A B C D E F G H I J K L M N O P Q R S T U V W X Y Z