Song name
# A B C D E F G H I J K L M N O P Q R S T U V W X Y Z

Fito Paez - 11 Y 6 tab

-----------------------------------------------------------------
               11 y 6 - Fito Paez
-----------------------------------------------------------------


   Intro
                                                                 _
------------10-8-7-8-7------------9-10-|-14|-8-7-5-7-8-7--10-8-   |
-----7-8-10------------10-8---7-8------|----|------------10-----  |
-7-9-----------------------------------|----|-------------------  |
---------------------------------------|----|-------------------  |
---------------------------------------|----|-------------------  |
---------------------------------------|----|-------------------  |
                                                                  |X2 
-7-8-7-------------------------------|-|-|-|--------------------  |
-------10--8-7--8-7-8-7-8-7----------|-|-|-|--------------------  |
-----------------------------9--7----|-|-|-|--------------------  |
-------------------------------------|-|-|-|--------------------  |
-------------------------------------|-|-|-|--------------------  |
-------------------------------------|-|-|-|-------------------- _|
                                                                 

-3------------------------3-------------------------------------|
-0------------------------1-------------------------------------|
-0------------------------2-------------------------------------|
-0------------------------0-------------------------------------|
-2------------------------0-------------------------------------|
-3------------------------0-------------------------------------|

Enjoy!
Tap to rate this tab
# A B C D E F G H I J K L M N O P Q R S T U V W X Y Z