Song name
# A B C D E F G H I J K L M N O P Q R S T U V W X Y Z

Fito Y Fitipaldis - Soldadito Marinero tab

Intro 1:
|-------------3---------2---------2------------|
|-------------3---------3---------3----------2-|
|-------------0---------2---------2--------2-2-|
|--2/4^2-0----0---------0---0h4---4---0h4-4--2-|
|-------------2---0h2------------------------0-|
|-------------3--------------------------------|

|-------------3---------2---------2-------------------2-|
|-------------3---------3---------3---------2---------3-|
|-------------0---------2---------2---------2---------2-|
|--2/4^2-0----0---------0---0h4---4---0h4---2--2br-0--0-|
|-------------2---0h2-----------------------0-----------|
|-------------3-----------------------------------------|

El ritmo del verso es el siguiente(lo he hecho como he podido aqui).
Se supone que son negras, corcheas y semicorcheas.
n=se toca hacia abajo  v=se toca hacia arriba  ()=no se toca.
n(vnv) n(v)n v
|      |   | |
|      |   | |    X2 Cada compás
|      |   | |
<      <   < <


A                    G                       D
Él camina despacito que las prisas no son buenas
Bm                   D                   A
En su brazo dobladita con cuidado la chaqueta
G                                             D
Luego pasa por las calles donde los chavales juegan
Bm                     A                     D
Él también quiso ser niño pero le pilló la guerra

        

                        ESTRIBILLO

n(vnv) n(v)n  v  (n)v(n)v  (n)v n v  |---------| 
|      |---|--|   |-|-|-|   |-|-|-|  |----3----| 
|      |   |--|   |-|-|-|   |-|-|-|  |----2----| 
|      |   |  |   | | | |   | | | |  |---------| 
<      <   <  <   < < < <   < < < <  |---------|
                                     |---------|
                                        
|----2----|
|----3----|
|----4----|
|----4----|
|----2----|
|---------|
    B 

                   

G                                  D
Soldadito marinero conociste a una sirena
Bm                                              A
De esas que dicen “te quiero” si ven la cartera llena
G                                      D
Escogiste a la más guapa y a la menos buena
Bm                 A                        D
Sin saber como ha venido te ha cogido la tormenta



|-------------3-------------2-------------2-----2-|
|-------------3-------------3-------------3--2--3-|
|-------------0---2/4^2-----2-------------2--2--2-|
|--2/4^2-0----0---------4---4---2/4^2-0---0--2--0-|
|-------------2------------------------------0----|
|-------------3-----------------------------------|

A                   G                       D
Él quería cruzar los mares y olvidar a su sirena
Bm                   D                       A
La verdad no fue difícil cuando conoció a Mariola
G                                                 D
Que tenía los ojos verdes y un negocio entre las piernas
Bm                    A                       D
Hay que ver que puntería no te arrimas a una buena


                  ESTRIBILLO

Soldadito marinero conociste a una sirena
De esas que dicen “te quiero” si ven la cartera llena
Escogiste a la más guapa y a la menos buena
Sin saber como ha venido te ha cogido la tormenta


Solo:
|-----------------------------------------------------------/7-|
|--10-----------------10b(12)-10~-------7----------------------|
|---9b(11)r(9)-9-7-0-------------------7-7h9----6b(7)r(6)-4----|
|----------------------------------7h9--------4----------------|
|--------------------------------------------------------------|
|--------------------------------------------------------------|

|---------------------10-12-10-----------------------------------|
|--7-7--10-9-8~---/12----------12-10-12-10~----------------------|
|---------------------------------------------------9b(11)--9--7-|
|---------------------------------------------7-9-7--------7--7--|
|----------------------------------------------------------------|
|----------------------------------------------------------------|


G                      D
Después de un invierno malo
              A
Una mala primavera
                     Bm
No sé por que estás buscando
                    G
Una lágrima en la arena(x 3)
                       D
Después de un invierno malo



|---------14-12-----------14------|       
|-----15--------------15----15----|       
|---14--14----------14--14--------|    X2
|--0---------------0--------------|       
|---------------------------------|       
|---------------------------------|       
Tap to rate this tab
 
# A B C D E F G H I J K L M N O P Q R S T U V W X Y Z