Song name
# A B C D E F G H I J K L M N O P Q R S T U V W X Y Z

Fitz And The Tantrums - Spark Acoustic tab

Artist: Fitz and the Tantrums
Song: Spark     
Album: More Than Just A Dream
Tuning: Standard

Intro

e |--6---6-------6-6------------6-6----------6-6-----------6-6-------------|
B |--6---6-------6-6------------6-6----------6-6-----------6-6-------------|
G |--6---6-------6-6------------6-6----------6-6-----------6-6-------------|
D |--x---x(x2)--x-x--8---6-----x-x----------x-x---8---6---x-x--8-11--810-|
A |--x---x-------x-x---------8--x-x--6---8---x-x---------8-x-x-------------|    
E |--x---x-------x-x------------x-x----------x-x-----------x-x-------------|

Interlude

e |-------------------------------------------------------------------|
B |-------------------------------------------------------------------|
G |-------------------------------------------------------------------|
D |-----------------------------6---8---------------------------6--8--|
A |-------------6--8--8-8118-----------------6--8--8-8-6-8-6--------|         
E |--6-6--9--6------------------------6-6-9--6------------------------|

Verse 1

e |--6---6-------6-6------------6-6----------6-6-----------6-6-------------|
B |--6---6-------6-6------------6-6----------6-6-----------6-6-------------|
G |--6---6-------6-6------------6-6----------6-6-----------6-6-------------|
D |--x---x(x2)--x-x--8---6-----x-x----------x-x---8---6---x-x-118--10--8-|
A |--x---x-------x-x---------8--x-x--6---8---x-x---------8-x-x-------------|    
E |--x---x-------x-x------------x-x----------x-x-----------x-x-------------|


e |-2---2-----------2--2-------2--2----------x--x------|
B |-2---2-----------2--2-------2--2----------x--x------|
G |-2---2-----------2--2-------2--2----------6--x------|
D |-x---x--3--1-----x--x--1--3-x--x--3--1----6--6------|
A |-x---x--------1--x--x-------x--x-------1--4--6------|        
E |-x---x-----------x--x-------x--x----------x--4------|

You think it's over now
You think we'll go away
But we keep climbing up
You can't keep us down

A temporary no
This shit is not for play
We're not your typical
That ain't what we're here for

It's time we light it up
Our match's to the grain
The tension's driving in
We ain't looking down

Watch how we take the throne
Drop like a cannonball
We take the lead, no
We're never gonna follow

Oh, oh oh oh oh oh oh, oh oh oh oh oh
Oh, oh oh oh oh oh oh oh oh oh oh

Chorus

e |--2---9----4-------6---9----4---|
B |--2---9----4-------7---9----4---|
G |--3---10---5-------8---10---5---|
D |--4---11---6(x2)--8---11---6---|
A |--4---11---6-------6---11---6---|    
E |--2---9----4-------x---9----4---|

Don't they know, the speaker is about to explode?
Don't they know, this building is about to blow?
This building is about to


Interlude

e |-------------------------------------------------------------------|
B |-------------------------------------------------------------------|
G |-------------------------------------------------------------------|
D |-----------------------------6---8---------------------------6--8--|
A |-------------6--8--8-8118-----------------6--8--8-8-6-8-6--------|         
E |--6-6--9--6------------------------6-6-9--6------------------------|

Blow, oh oh oh oh oh oh, oh oh oh oh oh
Oh, oh oh oh oh oh oh oh oh oh oh

Verse 2

3 years of digging holes
Been burning through our soles
Yeah we keep on rising high
You can't touch us now

We give it every night
Our hearts are dynamite
We spit that fire
So you better listen up

Interlude

Chorus

Bridge

e |--6---9---4-------|
B |--7---9---4-------|
G |--8---10--5-------|
D |--8---11--6-------|
A |--6---11--6-------|  
E |--x---9---4-------|


Bang bang here we go
Everything's about to blow
(Oh oh, oh oh)


e |--6----2----4------|
B |--7----2----4------|
G |--8----3----5------|
D |--8----4----6------|
A |--6----4----6------|         
E |--x----2----4------|

Boom Boom, it's going up
Blast it up and lift it up
Sky high sky high
Here we go 'bout to fly

Chorus

Interlude

e |-------------------------------------------------------------------|
B |-------------------------------------------------------------------|
G |-------------------------------------------------------------------|
D |-----------------------------6---8---------------------------------|
A |-------------6--8-8--8118-----------------6--8--8-8-6-8-6--------|         
E |--6-6--9--6------------------------6-6-9--6------------------6-----|
Tap to rate this tab
 
# A B C D E F G H I J K L M N O P Q R S T U V W X Y Z