Song name
# A B C D E F G H I J K L M N O P Q R S T U V W X Y Z

Five And Dime - Superstar tab

Artist:Five and dime
Song:Superstar

Tabbed by Javier Garcia 
Javiergarcia85@hotmail.com

Normal tunning (E-A-D-G-B-e)

Intro / verse / outro
E---------------------------------------------------
B---------------------------------------------------
G----5-5--------------------------------------------
D----5-5----5-5-5----3-3-3----3-3-3----------------- 
A----3-3----5-5-5----3-3-3----3-3-3-----------------
e-----------3-3-3----1-1-1----1-1-1-----------------

Chorus

E---------------------------------------------------
B---------------------------------------------------
G----5-5-5-5----------------------------------------
D----5-5-5-5--5-5-5-5--3-3-3-3-3-3-3-3--------------
A----3-3-3-3--5-5-5-5--3-3-3-3-3-3-3-3--------------
e-------------3-3-3-3--1-1-1-1-1-1-1-1--------------

This is my very first tab! hope u enjoy i simply cant tab out the solo. God saves!
Tap to rate this tab
 
# A B C D E F G H I J K L M N O P Q R S T U V W X Y Z