Song name
# A B C D E F G H I J K L M N O P Q R S T U V W X Y Z

Five Bolt Main - Pathetic tab

http://www.fiveboltmain.com

Pathetic from Five Bolt Main
Tuning: Drop C

Main(lead right into the next with those zeros)
------------------|
------------------|
------------------|
------------------|
-332-xx-x-x-x-000-|
-332-xx-x-x-x-000-|
-332-xx-x-x-x-000-|

Fill(thrown throughout the Main riff, not hard to figure out where)
-----0~---------|
-----0~---------|
-----0~---------|
-332------------|
-332------------|
-332------------|

Verse
-----------------|
-----------------|
-----------------|
-332----000-332--|
-332----000-332--|
-332----000-332--|

-play Main

Chorus
--------------------------|
--------------------------|
--------------------------|
-2-222-222-22-3-330-000-3-|
-2-222-222-22-3-330-000-3-|
-2-222-222-22-3-330-000-3-|

-play Verse
-Play Main
-Play Chorus
Interlude(clean)
---------------------------|
------------5--------------|
-------4-44---------4-44---|
-2-222--------2-222------3-|
---------------------------|
---------------------------|

Interlude 2
-----------|
-----------|
-----------|
-2~~-------|
-2~~-------|
-2~~-------|

-play Chorus
-play Main
Tap to rate this tab
# A B C D E F G H I J K L M N O P Q R S T U V W X Y Z