Song name
# A B C D E F G H I J K L M N O P Q R S T U V W X Y Z

Five Fast Hits - Bad Bargain tab

-------------------------------------------------------------------------------
			     Bad Bargain - Five! Fast!! Hits!!!
-------------------------------------------------------------------------------
Tabbed by: cirrusXcloud


Tuning: EADGBE (standard)

Nobody has tried to tab this song yet, so i thought i might give it a shot.
I only did the intro so far, but I'll do the rest when I have time.
This is my first time to tab a song, so don't be too harsh on me. also, this is more a 
than the 100% correct way to play it.this is also due to the weird distortion they use in 
song.anyway, thanks and enjoy.

if you have any corrections please email me on ibanez1991@gmail.com

e|--------------5-----|----5--5--5--5----------|----5--5--5--x--------4--|
B|-------------(5)----|----5--5--5--5----------|----5--5--5--x--------5--|
G|--------------------|----5--5--5--6----------|----6--6--6--x-----------|
D|--------------------|----7--7--7--7----------|----7--7--7--x-----------|
A|--------------------|----7--7--7--7----------|----7--7--7--x--4--------|
E|------5-------------|----5--5--5--5----------|----5--5--5--x--4--------|

e|----4--4--4--4------|----4-----3-----2-------|----2-----2--2--2--2-----|
B|----5--5--5--5------|----5-----4-----3-------|----3-----3--3--3--3-----|
G|----6--6--6--6------|----6-----5-----4-------|----------4--4--4--4-----|
D|----6--6--6--6------|----6-----5-----4-------|----------4--4--4--4-----|
A|----4--4--4--4------|----4-----3-----2-------|----------2--2--2--2-----|
E|----4--4--4--4------|----4-----3-----2-------|----------2--2--2--2-----|

e|----2--2--2--x--x---|---x---x--x---x--x--x--x|--0-----0----------------|
B|----3--3--3--x--x---|---x---x--x---x--x--x--x|--0----------0-----------|
G|----4--4--4--x--2---|---2---2--2---2--2--2--2|--1---------------1------|
D|----4--4--4--x--4---|---4---4--4---4--4--4--4|--2----------------------|
A|----2--2--2--x--4---|---4---4--4---4--4--4--4|--2-------------------2--|
E|----2--2--2--x--2---|---2---2--2---2--2--2--2|--0-------------------0--|

e|-----------------5--|------------------------|-------------------------|
B|-----------------5--|------------------------|-------------------------|
G|-------------1---6--|------------------------|-------------------------|
D|----------2--2---7--|------------------------|-------------------------|
A|------2------2---5--|------------------------|-------------------------|
E|--0----------0---5--|------------------------|-------------------------|

| /  slide up
| \  slide down
| h  hammer-on
| p  pull-off
| ~  vibrato
| +  harmonic
| x  Mute note
===============================================================================
Tap to rate this tab
 
# A B C D E F G H I J K L M N O P Q R S T U V W X Y Z