Song name
# A B C D E F G H I J K L M N O P Q R S T U V W X Y Z

Five Finger Death Punch - Bleeding Acoustic tab

The Bleeding (Acoustic)
Five Finger Death Punch
tabbed by bruski

Heres the acoustic version to the song, better than the original version IMO.
All the parts should be there, some of the strum patterns your goin to have to
figure out yourself, their not hard. There is some variation of parts throughout
the song, but if you listen, its easy to learn. Only my second tab ever, so be nice

Drop C

Intro

Guitar 1

D------------------------------------------------------------------------------------|
A------------------------------------------------------------------------------------|
F--------14-------15-------14-------12------12h14------14------15-------14-------12\-|
C--12-12----12-12----12-12----12-12----12-12-----12-12----12-12---12-12----12-12-----|
G------------------------------------------------------------------------------------|
C------------------------------------------------------------------------------------|

D-------------------------------------------------------------------------------------|
A-------------------------------------------------------------------------------------|
F------10-----10-----10-----10-----10//--------12-------12-------12-------12-------12-|
C--8-8----8-8----8-8----8-8----8-8---//--10-10----10-10----10-10----10-10----10-10----|
G-------------------------------------------------------------------------------------|
C-------------------------------------------------------------------------------------|
Second guitar comes in, guitar 1 continues playing intro

Guitar 2

D-------------------------------------------------------------------------|
A-------------------------------------------------------------------------|
F-----------------------------10--10h12-----------------------------10h12-|
C--10h12--12-12--12-12-12--12------------10h12--12-12--12-12-12--12-------|
G-------------------------------------------------------------------------|
C-------------------------------------------------------------------------|

D-------------------------------------------------------------------------------------|
A-------------------------------------------------------------------------------------|
F-----------------------------10--10h12-----------------------------12-10----10-------|
C--10h12--12-12--12-12-12--12------------10h12--12-12--12-12-12--12-------12----12-10-|
G-------------------------------------------------------------------------------------|
C-------------------------------------------------------------------------------------|

Verse

Guitar 1 continues intro riff

Guitar 2

D--------------------------------------------------------------------------|
A--------------------------------------------------------------------------|
F-----------------------------10--10h12-----------------------------12~\\--|
C--10h12--12-12--12-12-12--12------------10h12--12-12--12-12-12--12--------|
G--------------------------------------------------------------------------|
C--------------------------------------------------------------------------|

D-------------------------------------------------------------------|
A-------------------------------------------------------------------|
F--7-9-10~--10~-12-14--14h15p14--12--10\9~---10--12-10-9--10p9------|
C---------------------------------------------------------------10--|
G-------------------------------------------------------------------|
C-------------------------------------------------------------------|

Chorus

D--------------------------------------------|
A--------------------------------------------|
F--------------------------------------------|
C--0--0-xx-x-0--0-xx-x-0--0-xx-x-3--3-3\\5-5-|
G--0--0-xx-x-0--0-xx-x-0--0-xx-x-3--3-3\\5-5-|
C--0--0-xx-x-0--0-xx-x-0--0-xx-x-3--3-3\\5-5-|

Breakdown

D-------------------0----------------------3-3-3-|
A-------3--------------1--------6----------3-3-3-|
F-----------2--2~~-------2----------5--5~~-5-5-5-|
C--0~~---------2~~----------3~~--------5~~-5-5-5-|
G--0~~---------0~~----------3~~--------3~~-3-3-3-|
C--0~~----------------------3~~------------------|
Tap to rate this tab
# A B C D E F G H I J K L M N O P Q R S T U V W X Y Z