Song name
# A B C D E F G H I J K L M N O P Q R S T U V W X Y Z

Five Finger Death Punch - Meet The Monster tab

Intro
|--------------------------|
|--------------------------|
|--------------------------|
|--------------------------|
|---00-00-00-00-00-00-00---|
|---00-00-00-00-00-00-00---|

Riff 1 (4x)
|----------------------------------------|
|----------------------------------------|
|----------------------------------------|
|----------------------------------------|
|-----0-5----5-7----12-111211-8-11-8-7---|
|---0------0------0----------------------|

|----------------------------------------|
|----------------------------------------|
|----------------------------------------|
|----------------------------------------|
|---00------00------00------00-----------|
|---00------00------00------00-----------|

|----------------------------------------|
|----------------------------------------|
|----------------------------------------|
|----------------------------------------|
|-----0-5----5-7----12-111211-8-8118-7---|
|---0------0------0----------------------|

|----------------------------------------|
|----------------------------------------|
|----------------------------------------|
|----------------------------------------|
|---00------00------00------00-----------|
|---00------00------00------00-----------|

Verse (4x)
|--------------------------------|
|--------------------------------|
|--------------------------------|
|--------------------------------|
|---0-00001-0-0------------------|
|---0-00001-0-0--7-6-3-6-3-2-3---|

Chorus 

|---------------------------------------------------------------------|
|---------------------------------------------------------------------|
|---------------------------------------------------------------------|
|---------------------------------------------------------------------|
|---00000-00000-000-00000-00000-000-33333-33333-333-55555-55555-555---|
|---00000-00000-000-00000-00000-000-33333-33333-333-55555-55555-555---|

|---------------------------------------------------------------------|
|---------------------------------------------------------------------|
|---------------------------------------------------------------------|
|---------------------------------------------------------------------|
|---00000-00000-000-00000-00000-000-33333-33333-333-55555-55555-555---|
|---00000-00000-000-00000-00000-000-33333-33333-333-55555-55555-555---|

|---------------------------------------------------------------------|
|---------------------------------------------------------------------|
|---------------------------------------------------------------------|
|---------------------------------------------------------------------|
|---00000-00000-000-00000-00000-000-33333-33333-333-55555-55555-555---|
|---00000-00000-000-00000-00000-000-33333-33333-333-55555-55555-555---|

|------------------------------------------------------|
|------------------------------------------------------|
|------------------------------------------------------|
|------------------------------------------------------|
|---00000-00000-000-00000-00000-000-33333-33333-3333---|
|---00000-00000-000-00000-00000-000-33333-33333-3333---|


Riff (2x)

Verse (4x)

Chorus 

Riff (2x)

Breakdown 1 (2x)
|------------------------------------------------------------------|
|------------------------------------------------------------------|
|------------------------------------------------------------------|
|----------------------------------------10---12-10-9-9109---------|
|-----0-5---5-7--12-11-8-11-8-7-8-8-8/12-------------------12-10---|
|---0-----0--------------------------------------------------------|

|------------------------------------------------------------------|
|------------------------------------------------------------------|
|------------------------------------------------------------------|
|------------------------------------------------------------------|
|---0-----------------------------3--------------------------------|
|---0-----------------------------3--------------------------------|
  
Breakdown 2 (2x)     
                         (3x) then....
|--------------------------|---------------------------|
|--------------------------|---------------------------|
|--------------------------|---------------------------|
|--------------------------|-------------10------------|
|-----10-12---13-12-10-12--|-----10-12------13-12-10---|
|---0-------0--------------|---0-------0---------------|

The Rythm is the pretty much the same as breakdown 1.

Breakdown 3 (2x)
|-----------------------------------------|
|-----------------------------------------|
|-----------------------------------------|
|-----------------------------------------|
|-----0-5-7-11-8-7-8---12-11-8-11-8-7-8---|
|---0-------------------------------------|

Verse (about 20x)

|-------|
|-------|
|-------|
|-------|
|---0---|
|---0---|






Tap to rate this tab
# A B C D E F G H I J K L M N O P Q R S T U V W X Y Z