Song name
# A B C D E F G H I J K L M N O P Q R S T U V W X Y Z

Five Finger Death Punch - Death Before Dishonor tab

this is my first time tabbing a whole song just by ear all my other songs i've usually 
them live or a video of them (or someone) playing the song

Artist: Five Finger Death Punch
Song: Death Before Dishonor
Album: the Way of the Fist
Tuning: Drop B
Composer: 5FDP

Intro (Palm-Muted; play it 3 times then the drums come in then play it 4 more times)
|---------|
|---------|
|---------|
|---------|
|-11-01-0-|
|-11-01-0-|

|---------------------------------------|
|---------------------------------------|
|-------6--4/5------------------223-----|
|-4-----6------6/5-4/5-6-----2-----4433-|
|-4-----4--------------6-----2----------|
|-2-222----------------4-444-0----------|
    ...                  ...    .......

Intro/Verse Pt. 2
|-------------------------------------------------------|
|-------------------------------------------------------|
|-------------------------------------------------------|
|-------------------------------------------------7--7--|
|-------------------------------------------------5--5--|
|-5-4-3-0-0-0-5-4-3-0-0-0-5-4-3-0-0-0-5-4-3-0-0-0-------|
  . . . . . . . . . . . . . . . . . . . . . . . .

(Palm-Muted)
|--------------------------------------------------|
|--------------------------------------------------|
|--------------------------------------------------|
|--------------------------------------------------|
|--------------------------------------------------|
|-5-4-3-0-0-0-5-4-3-0-0-0-5-4-3-0-0-0-321032103210-|

Verse Pt. 1
|-------------------------------------------------------------|
|-------------------------------------------------------------|
|-----------------------------------------------2-3-2---------|
|-------------------------7--7------------------------4-3-2-0-|
|-5-4-3-0-5-4-3-0-5-4-3-0-5--5--5-4-3-0-5-4-3-0---------------|
|-5-4-3-0-5-4-3-0-5-4-3-0-------5-4-3-0-5-4-3-0---------------|
  . . . . . . . . . . . .       . . . . . . . .

Chorus
|-------------------------------------------|
|-------------------------------------------|
|-------6--6-6-6-6-6-6----------------------|
|-4-----6--6-6-6-6-6-6-6-----2--2-2-2-2-2-2-|
|-4-----4--4-4-4-4-4-4-6-----2--2-2-2-2-2-2-|
|-2-222----------------4-444-0--0-0-0-0-0-0-|

Pre Bridge Pt. 1
|-----------|
|-----------|
|-----------|
|-----------|
|-----------|
|-876565430-

Pre Bridge Pt. 2
|-----------------------|
|-----------------------|
|-----------------------|
|-----------------------|
|-----------------------|
|-876565430--8765654300-|

Bridge
|----------------------------------|
|----------------------------------|
|----------------------------------|
|----------------------------------|
|----------------------------------|
|-87656543876565438765654387656543-

i know it's probably nowhere near perfect but it's a start for a better guitarist than 
to figure out the correct version and the timing for each riff is really simple to figure 
i'll be adding the lead parts later.
Tap to rate this tab
 
# A B C D E F G H I J K L M N O P Q R S T U V W X Y Z