Song name
# A B C D E F G H I J K L M N O P Q R S T U V W X Y Z

Five Finger Death Punch - Cant Heal You tab

Artist: Five Finger Death Punch
Song: Can't Heal You
Album: the Way of the Fist
Tuning: Drop B
Composer: 5FDP

Riff A Intro/Can’t Heal You…
|----------------------------------------------|
|----------------------------------------------|
|----------------------------------------------|
|----------------------------------------------|
|-5-3--2-2-05-3--2-2-05-3--2-2-07----5----4----|
|-5-3--2-2-05-3--2-2-05-3--2-2-05-00-3-00-2-00-|
 . .   . . .. .  . . .. .  . . .  ..   ..   ..

Riff B The Deeper…
|-----------------------------------------------------------------|
|-----------------------------------------------------------------|
|-----------------------------------------------------------------|
|-----------------------------------------------------------------|
|---7---7---7---7---7---7---7---7---5---5---5---5---4---4---4---4-|
|-0-5-0-5-0-5-0-5-0-5-0-5-0-5-0-5-0-3-0-3-0-3-0-3-0-2-0-2-0-2-0-2-|

Riff C You’re Lost Inside…
|-----------------------------------------------------------------|
|-----------------------------------------------------------------|
|-----------------------------------------------------------------|
|-----------------------------------------------------------------|
|-7-----7----7----5-----5----5----4-----4----4----5-----5----5----|
|-5-000-5-00-5-00-3-000-3-00-3-00-2-000-2-00-2-00-3-000-3-00-3-00-|

Riff D You Are the One Who…
|-----------------------------------------------------------------|
|-----------------------------------------------------------------|
|-----------------------------------------------------------------|
|-----------------------------------------------------------------|
|-5-5-5-5-5-5-5-5-3-3-3-3-2-2-0-0-5-5-5-5-5-5-5-5-3-3-3-3-2-0-2-0-|
|-5-5-5-5-5-5-5-5-3-3-3-3-2-2-0-0-5-5-5-5-5-5-5-5-3-3-3-3-2-0-2-0-|

the rest of the song Coming Soon!
Tap to rate this tab
 
# A B C D E F G H I J K L M N O P Q R S T U V W X Y Z