Guitaretab - guitar tabs
Song name
# A B C D E F G H I J K L M N O P Q R S T U V W X Y Z

Five Finger Death Punch - The Bleeding tab

-----------------------------------------------------------------------------
			     THE BLEEDING - Five Finger Death Punch
-----------------------------------------------------------------------------
Tabbed by: Godsmack90192
Email: Godsmack90192@gmail.com

Tuning: Drop C

e|-----------------------------------------------------------------------------|
B|----10-11-10-8-8/10---10-11-10-8-8/10---6-6-6-6/8--8-8-8-8-8/10--------------|
G|---9--9--9--9--------9--9--9--9--------5-5-5-5----7-7-7-7--------------------|
D|-----------------------------------------------------------------------------|
A|----------------------------X-How ever many times-X--------------------------|
E|-----------------------------------------------------------------------------|
[ Tab from: http://www.guitaretab.com/f/five-finger-death-punch/170270.html ]
e|--------------------------------------------------------------------------|
B|--------------------------------------------------------------------------|
G|--------------------------------------------------------------------------|
D|--------------------------------------------------------------------------|
A|----222222222222222222---0000000000----3333333333-------------------------|
E|----222222222222222222---0000000000----3333333333-------------------------|

[SOLO]

e|----15b17~------13-12~-13-11~-12---------------15-13-12/18b20~--17-14-14~-|
B|--------------------------------10~-11-12-13-14---------------------------|
G|--------------------------------------------------------------------------|
D|--------------------------------------------------------------------------|
A|--------sorry dont know the fast part... this is really easy--------------|
E|--------------------------------------------------------------------------|

  "THE LIES!!!!" come in with the big-ass scream

e|--------------------------------------------------------------------------|
B|--------------------------------------------------------------------------|
G|--------------------------------------------------------------------------|
D|---00xx--000xx--000xx--03355----------------------------------------------|
A|---00xx--000xx--000xx--03355-----------X2---------------------------------|
E|---00xx--000xx--000xx--03355----------------------------------------------|


Then the chorus comes in... its pretty self explanatory once u get the hang of it... its 
the intro over and over then a chorus then the bridge which is easy too... its all 
PEACE!
Related for The Bleeding tab
The Bleeding chords by Five Finger Death Punch