Song name
# A B C D E F G H I J K L M N O P Q R S T U V W X Y Z

Five Finger Death Punch - Salvation tab

-------------------------------------------------------------------------------
			     Salvation - Five Finger Death Punch
-------------------------------------------------------------------------------
Tabbed by: Josh
Email: -- 

Tuning: im not sure i think its about dropped C but i worked it out in Dropped D so go from there.

Main Riff
e|---------------------------------------------------------------------------|
B|---------------------------------------------------------------------------|
G|---------------------------------------------------------------------------|
D|----0-------0--3--0--------------------------------------------------------|
A|----0-------0--3--0--------------------------------------------------------|
D|--000---00000333000--00-----9\\\\2-----------------------------------------|x6
    ..    .... .. ..   ..     ......   
                           (pick every fret)

e|---------------------------------------------------------------------------|
B|---------------------------------------------------------------------------|
G|---------------------------------------------------------------------------|
D|--0-----3-0---3-0--------------0-----3-0---3-0-------4--3--2---------------|
A|--0-----3-0---3-0--------------0-----3-0---3-0-------4--3--2---------------|
D|--0--00-3-0-0-3-0----9\\\\2----0--00-3-0-0-3-0--00---4--3--2---------------|
       ..     .        ......       ..     .      ..
                    (pick every fret)

e|---------------------------------------------------------------------------|
B|---------------------------------------------------------------------------|
G|---------------------------------------------------------------------------|
D|----0-------0--3--0--------------------------------------------------------|
A|----0-------0--3--0--------------------------------------------------------|
D|--000---00000333000--00-----9\\\\2-----------------------------------------|x4
    ..    .... .. ..   ..     ......   
                           (pick every fret)

e|---------------------------------------------------------------------------|
B|---------------------------------------------------------------------------|
G|---------------------------------------------------------------------------|
D|--0-----3-0---3-0--------------0-----3-0---3-0-------4--3--2---------------|
A|--0-----3-0---3-0--------------0-----3-0---3-0-------4--3--2---------------|
D|--0--00-3-0-0-3-0----9\\\\2----0--00-3-0-0-3-0--00---4--3--2---------------|x2
       ..     .        ......       ..     .      ..
                    (pick every fret)

chorus
e|---------------------------------------------------------------------------| 
B|---------------------------------------------------------------------------|
G|---------------------------------------------------------------------------|
D|--333-------333--------222-------111-0-4-1-3-------------------------------|
A|--333-------333--------222-------111-0-4-1-3-------------------------------|
D|--333-00--0-333-00--0--222-00--0-111-0-4-1-3-------------------------------|
        ..  .     ..  .      ..  .                                          
e|---------------------------------------------------------------------------|
B|---------------------------------------------------------------------------|
G|---------------------------------------------------------------------------|
D|--333-------333--------222-------111---0000-2223---------------------------|
A|--333-------333--------222-------111---0000-2223---------------------------|
D|--333-00--0-333-00--0--222-00--0-111---0000-2223---------------------------| 
        ..  .     ..  .      ..  .                play the chorus twice.

verse
e|---------------------------------------------------------------------------|
B|---------------------------------------------------------------------------|
G|---------------------------------------------------------------------------|
D|--3--3--3--3---2--2--2--2---1--1--1--1--0--0--0--0--0--2--5--7-------------|
A|--3--3--3--3---2--2--2--2---1--1--1--1--0--0--0--0--0--2--5--7-------------|
D|--3003003--3---2002002--2---1001001--1--0000000--0--0--2--5--7-------------|x2
    .......      .......      .......     .......

main riff
e|---------------------------------------------------------------------------|
B|---------------------------------------------------------------------------|
G|---------------------------------------------------------------------------|
D|----0-------0--3--0--------------------------------------------------------|
A|----0-------0--3--0--------------------------------------------------------|
D|--000---00000333000--00-----9\\\\2-----------------------------------------|x6
    ..    .... .. ..   ..     ......   
                           (pick every fret)


e|---------------------------------------------------------------------------|
B|---------------------------------------------------------------------------|
G|---------------------------------------------------------------------------|
D|--0-----3-0---3-0--------------0-----3-0---3-0-------4--3--2---------------|
A|--0-----3-0---3-0--------------0-----3-0---3-0-------4--3--2---------------|
D|--0--00-3-0-0-3-0----9\\\\2----0--00-3-0-0-3-0--00---4--3--2---------------|x4
       ..     .        ......       ..     .      ..
                    (pick every fret)


e|---------------------------------------------------------------------------|
B|---------------------------------------------------------------------------|
G|---------------------------------------------------------------------------|
D|-0-------------------------------------------------------------------------|
A|-0-------------------------------------------------------------------------|
D|-0------------0-0-0-0-0-0-0-0-0-0-0-0-0-0-0--------------------------------|
                . . . . . . . . . . . . . . .
e|---------------------------------------------------------------------------|
B|---------------------------------------------------------------------------|
G|---------------------------------------------------------------------------|
D|--333-------333--------222-------111---0000-2223---------------------------|
A|--333-------333--------222-------111---0000-2223---------------------------|
D|--333-00--0-333-00--0--222-00--0-111---0000-2223---------------------------| 
        ..  .     ..  .      ..  .                play the chorus 6 times.

Thats it. Any mistakes ive made email me: Joshua.burne@hotmail.com


| /  slide up
| \  slide down
| h  hammer-on
| p  pull-off
| ~  vibrato
| +  harmonic
| x  Mute note
===============================================================================
Tap to rate this tab
# A B C D E F G H I J K L M N O P Q R S T U V W X Y Z