Song name
# A B C D E F G H I J K L M N O P Q R S T U V W X Y Z

Five Finger Death Punch - Bleeding Acoustic tab

alright you guy i dont mean to rip off who ever put in the first FFDP acoustic version,
thought it was great and this is where it comes from for the most part. i was trying to
this song with a friend, but he doesn't have a cutout acousttic, so he was having a 
time with the rhythme, so we slid everything DOWN to frets, or if your looking at
up to frets. and we found taht it actually sounded better to us... bit lower than 
oh and i included both versions of how to do the chorus, i like both and think the second 
sounds a bit better. so enjoy!!!
oh btw, my tuning is standard... ignore the letters... that was for the other tuning, i
this one just with regular tuning... lol!!!


Guitar 1

D---------------------------------------------------------------------------------------|
A---------------------------------------------------------------------------------------|
F--------12-------13-------12-------10------10h12------12------13-------12-------10\----|
C--10-10----10-10----10-10----10-10----10-10-----10-10----10-10----10-10----10-10-------|
G---------------------------------------------------------------------------------------|
C---------------------------------------------------------------------------------------|

D---------------------------------------------------------------------------------------|
A---------------------------------------------------------------------------------------|
F------8-----8-----8-----8-----8//--------10-------10-------10-------10-------10--------|
C--6-6----6-6----6-6----6-6----6-6---//--8-8----8-8----8-8----8-8----8-8----------------|
G---------------------------------------------------------------------------------------|
C---------------------------------------------------------------------------------------|
Second guitar comes in, guitar 1 continues playing intro

Guitar 2

D---------------------------------------------------------------------------|
A---------------------------------------------------------------------------|
F-----------------------------8--8h10-----------------------------8h10------|
C--8h10--10-10--10-10-10--10------------8h10--10-10--10-10-10--10-----------|
G---------------------------------------------------------------------------|
C---------------------------------------------------------------------------|

D---------------------------------------------------------------------------------------|
A---------------------------------------------------------------------------------------|
F-----------------------------8--8h10-----------------------------10-8----8-------------|
C--8h10--10-10--10-10-10--10------------8h10--10-10--10-10-10--10-------10----10-8------|
G---------------------------------------------------------------------------------------|
C---------------------------------------------------------------------------------------|

Verse

Guitar 1 continues intro riff

Guitar 2

D----------------------------------------------------------------------------|
A----------------------------------------------------------------------------|
F-----------------------------8--8h10-----------------------------10~\\------|
C--8h10--10-10--10-10-10--10------------8h10--10-10--10-10-10--10------------|
G----------------------------------------------------------------------------|
C----------------------------------------------------------------------------|

D---------------------------------------------------------------------|
A---------------------------------------------------------------------|
F--5-7-8~--8~-10-12--12h13p12--10--8\7~---8--10-8-7--8p7--------------|
C---------------------------------------------------------------8-----|
G---------------------------------------------------------------------|
C---------------------------------------------------------------------|

Chorus

D--------------------------------------------|
A--------------------------------------------|
F--------------------------------------------|
C--0--0-xx-x-0--0-xx-x-0--0-xx-x-3--3-3\\5-5-|
G--0--0-xx-x-0--0-xx-x-0--0-xx-x-3--3-3\\5-5-|
C--0--0-xx-x-0--0-xx-x-0--0-xx-x-3--3-3\\5-5-|

other version:

D---------------------------------------------|
A---------------------------------------------|
F---------------------------------------------|
C--3-3-xx--3-3-xx--3-3-xx-666-8---------------|
G--3-3-xx--3-3-xx--3-3-xx-666-8---------------|
C--1-1-xx--1-1-xx--1-1-xx-444-6---------------|
Tap to rate this tab
 
# A B C D E F G H I J K L M N O P Q R S T U V W X Y Z