Song name
# A B C D E F G H I J K L M N O P Q R S T U V W X Y Z

Five Finger Death Punch - Far From Home tab

Artist: Five Finger Death Punch
Song: Far From Home
Tab by: HPIDRIFTERX@yahoo.com (HPIDRIFTERX)
Check out my other tab for Rev Theory - Far From Over 



Legend:



(x??) = Repeat Chord/Riff That Amount
h = Hammer On
p = Pull Off
/ = Slide Up
\ = Slide Down
^ = Bend Up (can be full or half at times)
> = Let Note Ring



Key: Drop D (D,A,D,G,B,E)



***Everything is this song is spot on except the solo has a couple misses,
***but I'd put this song at 95% percent correct.  Please RATE and ENJOY !!!



Guitar 1: Intro



E|----------------------------------------------------------|
B|--------3------------2------------------------------------|
G|------4---4--------2---2----------7-----------------------|
D|----4-------4----2-------2------5---5----2>---------------|
A|--2------------0--------------5-------5--2>---------------|
D|----------------------------5------------2>---------------|



E|---------------------0------------------------------------|
B|--------3--------------0h2--------------------------------|
G|------4---4--------2--------------7-----------------------|
D|----4-------4----2--------------5---5----2>---------------|
A|--2------------0--------------5-------5--2>---------------|
D|----------------------------5------------2>---------------|



Guitar 1: Verse One



E|----------------------------------------------------------|
B|--------3------------2------------------------------------|
G|------4---4--------2---2----------7-----------------------|
D|----4-------4----2-------2------5---5----2>---------------|
A|--2------------0--------------5-------5--2>---------------|
D|----------------------------5------------2>---------------|



E|---------------------0------------------------------------|
B|--------3--------------0h2--------------------------------|
G|------4---4--------2--------------6------------7----------|
D|----4-------4----2--------------4---4--------5---5--------|
A|--2------------0--------------4-------4----5--------------|
D|----------------------------4------------5---------7------|



E|---------------------0------------------------------------|
B|--------3--------------0h2--------------------------------|
G|------4---4--------2--------------6------------7----------|
D|----4-------4----2--------------4---4--------5---5--------|
A|--2------------0--------------4-------4----5--------------|
D|----------------------------4------------5---------7------|



E|----------------------------------------------------------|
B|--------3------------2------------------------------------|
G|------4---4--------2---2----------7-----------------------|
D|----4-------4----2-------2------5---5----2>---------------|
A|--2------------0--------------5-------5--2>---------------|
D|----------------------------5------------2>---------------|



Guitar 1: Chorus



E|----------------------------------------------------------|
B|--------3------------0------------------------------------|
G|------4---4--------2---2----------------------------------|
D|----4-------4----2------------5-----4-----2-0--0h2p0------|
A|--2------------0------------5-----4-----2---0--0h2p0------|
D|--------------------------5-----4-----2-----0--0h2p0------|



E|--------------------0-------------------------------------|
B|------------------0---0h2---------------------------------|
G|--------3-------2----------------6------------------------|
D|------4---4---2----------------4---4----------------------|
A|----4-------0----------------4-------4--------------------|
D|--2------------------------4-----------5>-----------------|



E|---------------------0------------------------------------|
B|--------3--------------0h2--------------------------------|
G|------4---4--------2--------------7-----------------------|
D|----4-------4----2--------------5---5----2>---------------|
A|--2------------0--------------5-------5--2>---------------|
D|----------------------------5------------2>---------------|



Guitar 1 and 2: Verse Two w/ Distortion



E|----------------------------------------------------------|  G1 
B|--------3------------2------------------------------------|  G1
G|------4---4--------2---2----------7-----------------------|  G1
D|----4-------4----2-------2------5---5----2>---------------|  G1 
A|--2------------0--------------5-------5--2>---------------|  G1
D|----------------------------5------------2>---------------|  G1



E|----------------------------------------------------------|  G2
B|----------------------------------------------------------|  G2
G|--4>-----------2>-----------------------------------------|  G2
D|--4>-----------2>-----------5>-----------2>---------------|  G2
A|--2>-----------0>-----------5>-----------2>---------------|  G2
D|----------------------------5>-----------2>---------------|  G2



E|---------------------0------------------------------------|  G1
B|--------3--------------0h2--------------------------------|  G1
G|------4---4--------2--------------7-----------------------|  G1
D|----4-------4----2--------------5---5----2>---------------|  G1
A|--2------------0--------------5-------5--2>---------------|  G1
D|----------------------------5------------2>---------------|  G1



E|----------------------------------------------------------|  G2
B|----------------------------------------------------------|  G2
G|--4>-----------2>-----------------------------------------|  G2 
D|--4>-----------2>-----------4>-----------5>--5-5-5h7------|  G2
A|--2>-----------0>-----------4>-----------5>--5-5-5h7------|  G2
D|----------------------------4>-----------5>--5-5-5h7------|  G2



E|---------------------0------------------------------------|  G1
B|--------3--------------0h2--------------------------------|  G1
G|------4---4--------2--------------6------------7----------|  G1
D|----4-------4----2--------------4---4--------5---5--------|  G1
A|--2------------0--------------4-------4----5--------------|  G1
D|----------------------------4------------5---------7------|  G1



E|----------------------------------------------------------|  G2
B|----------------------------------------------------------|  G2
G|--4>-----------2>-----------------------------------------|  G2
D|--4>-----------2>-----------4>-----------5>------5h7------|  G2
A|--2>-----------0>-----------4>-----------5>------5h7------|  G2
D|----------------------------4>-----------5>------5h7------|  G2



E|----------------------------------------------------------|  G1
B|--------3------------2------------------------------------|  G1
G|------4---4--------2---2----------7-----------------------|  G1
D|----4-------4----2-------2------5---5----2>---------------|  G1
A|--2------------0--------------5-------5--2>---------------|  G1
D|----------------------------5------------2>---------------|  G1



E|----------------------------------------------------------|  G2
B|----------------------------------------------------------|  G2
G|--4>-----------2>-----------------------------------------|  G2
D|--4>-----------2>-----------5>-----------2>---------------|  G2 
A|--2>-----------0>-----------5>-----------2>---------------|  G2
D|----------------------------5>-----------2>---------------|  G2



Guitar 1 and 2: Chorus



E|----------------------------------------------------------|
B|----------------------------------------------------------|
G|--4>-----------2>-----------------------------------------|
D|--4>-----------2>-----------5--4--2--0---0h2p0------------|
A|--2>-----------0>-----------5--4--2--0---0h2p0------------|
D|----------------------------5--4--2--0---0h2p0------------|



E|----------------------------------------------------------|
B|----------------------------------------------------------|
G|--4>-----------2>-----------------------------------------|
D|--4>-----------2>-------4-4-5>-----------4-2-0------------|
A|--2>-----------0>-------4-4-5>-----------4-2-0------------|
D|------------------------4-4-5>-----------4-2-0------------|



E|----------------------------------------------------------|
B|----------------------------------------------------------|
G|--4>-----------2>-----------------------------------------|
D|--4>-----------2>-----------5--4--2--0---0h2p0------------|
A|--2>-----------0>-----------5--4--2--0---0h2p0------------|
D|----------------------------5--4--2--0---0h2p0------------|



E|----------------------------------------------------------|
B|----------------------------------------------------------|
G|--4>-----------2>-----------------------------------------|
D|--4>-----------2>-------4-4-5>-----------4-2-0------------|
A|--2>-----------0>-------4-4-5>-----------4-2-0------------|
D|------------------------4-4-5>-----------4-2-0------------|



Guitar 1: Solo (Guitar 2 Solo Below)



E|----------------------------------------------------------|
B|----------------------------------------------------------|
G|------4h6/7^--6h7^/14^-10p8h10^--6h7/10^--6h7p6-4-2p0-4^--|
D|--5h7-----------------------------------------------------|
A|----------------------------------------------------------|
D|----------------------------------------------------------|



E|----------7---10---7---10---7---10---14-12-14h15p14^------|
B|------6^----7----7---7----7---7----7----------------------|
G|--4-2-----------------------------------------------------|
D|----------------------------------------------------------|
A|----------------------------------------------------------|
D|----------------------------------------------------------|



E|----15-14-12-10-12/14-14^--14h15-14-12-10-12-14-17^-------|
B|----------------------------------------------------------|
G|----------------------------------------------------------|
D|----------------------------------------------------------|
A|----------------------------------------------------------|
D|----------------------------------------------------------|



E|--10h12h14h15h17h19-19^-----------------------------------|
B|----------------------------------------------8-12^-------|
G|-------------------------2h4/7-4-10^--7h9/11--------------|
D|----------------------------------------------------------|
A|----------------------------------------------------------|
D|----------------------------------------------------------|



E|------------------------------------------19^-------------|
B|-------7-12-7-12^--15-12-19^--17-15-17-19-----------------|
G|---7h9----------------------------------------------------|
D|----------------------------------------------------------|
A|----------------------------------------------------------|
D|----------------------------------------------------------|



Guitar 2: Solo



E|----------------------------------------------------------|  X2
B|----------------------------------------------------------|  X2 
G|-----------2----------------------------------------------|  X2
D|--0--------2--------4-----------5--2----------------------|  X2
A|--0--------0--------4-----------5--2----------------------|  X2
D|--0-----------------4-----------5--2----------------------|  X2



Guitar 1 and 2: Chorus



E|----------------------------------------------------------|
B|----------------------------------------------------------|
G|--4>-----------2>-----------------------------------------|
D|--4>-----------2>-----------5--4--2--0---0h2p0------------|
A|--2>-----------0>-----------5--4--2--0---0h2p0------------|
D|----------------------------5--4--2--0---0h2p0------------|



E|----------------------------------------------------------|
B|----------------------------------------------------------|
G|--4>-----------2>-----------------------------------------|
D|--4>-----------2>-------4-4-5>-----------4-2-0------------|
A|--2>-----------0>-------4-4-5>-----------4-2-0------------|
D|------------------------4-4-5>-----------4-2-0------------|



E|----------------------------------------------------------|
B|----------------------------------------------------------|
G|--4>-----------2>-----------------------------------------|
D|--4>-----------2>-----------5--4--2--0---0h2p0------------|
A|--2>-----------0>-----------5--4--2--0---0h2p0------------|
D|----------------------------5--4--2--0---0h2p0------------|



E|----------------------------------------------------------|
B|----------------------------------------------------------|
G|--4>-----------2>-----------------------------------------|
D|--4>-----------2>-------4---5>-----------4-2-0------------|
A|--2>-----------0>-------4---5>-----------4-2-0------------|
D|------------------------4---5>-----------4-2-0------------|



Guitar 1 and 2: Outro



E|----------------------------------------------------------|
B|----------------------------------------------------------|
G|--4>-----------2>-----------------------------------------|
D|--4>-----------2>-------4-4-5>-----------4-2-0------------|
A|--2>-----------0>-------4-4-5>-----------4-2-0------------|
D|------------------------4-4-5>-----------4-2-0------------|



E|----------------------------------------------------------|
B|----------------------------------------------------------|
G|--4>-----------2>-----------------------------------------|
D|--4>-----------2>-----------5--4--2--0---0h2p0------------|
A|--2>-----------0>-----------5--4--2--0---0h2p0------------|
D|----------------------------5--4--2--0---0h2p0------------|



E|---------------------0------------------------------------|  G1
B|--------3--------------0h2--------------------------------|  G1
G|------4---4--------2--------------6------------7----------|  G1
D|----4-------4----2--------------4---4--------5---5--------|  G1
A|--2------------0--------------4-------4----5--------------|  G1
D|----------------------------4------------5---------7------|  G1



E|----------------------------------------------------------|  G1
B|--------3---------2---------------------------------------|  G1
G|------4---4-----2---2-------6---7>------------------------|  G1
D|----4---------2-----------4---4-5>------------------------|  G1
A|--2---------0-----------4-------5>------------------------|  G1
D|----------------------4---------5>------------------------|  G1



Lyrics:



Verse 1



Another day in this carnival of souls
Another nights ends, end as quickly as it goes
The memories are shadows; ink on the page
And i can't seem to find my way home



Chorus



And it's almost like
Your heaven's trying everything
Your heaven's trying everything
To keep me out



Verse 2



All the places i've been and things i've seen
A million stories that made up a million shattered dreams
The faces of people i'll never see again
And i can't seem to find my way home



Chorus



Cause it's almost like
Your heaven's trying everything
To break me down
Cause it's almost like
Your heaven's trying everything
To keep me out



[guitar solo]



Chorus



Cause it's almost like
Your heaven's trying everything
To break me down
Cause it's almost like
Your heaven's trying everything
Your heaven's trying everything
To break me down
To break me down



Outro



To break me down
Your heavens trying everything
Your heavens trying everything
To break me... down


Tap to rate this tab
 
# A B C D E F G H I J K L M N O P Q R S T U V W X Y Z