Song name
# A B C D E F G H I J K L M N O P Q R S T U V W X Y Z

Five Finger Death Punch - Hard To See tab

Five Finger Death Punch
Hard to See

This song is freakin awesome. Someone need to tab it.
Sorry about that whole "no solo" thing, i couldn't figure it out. Tab it if you know it.
.-palm mute
h-hammer on
p-pull off
*-pinch harmonic


Intro
Guitar 1
C#|--------------------------------------------------------------|
G#|------------------------10--12--------------------------------|
E |9-----------9-11-12------------9(held till end)---------------|
B |--------------------------------------------------------------|
F#|--------------------------------------------------------------|
C#|--------------------------------------------------------------|
Guitar 2
C#|--------------------------------------------------------------|
G#|--------------------------------------------------------------|
E |--------------------------------------------------------------|
B |--------------------------------------------------------------|
F#|-9-----9-----5-----5-----2-2-----2-2-----2-2-----2-2-----2----|
C#|-7-----7-0-0-3-----3-0-0-0-0-0-0-0-0-0-0-0-0-0-0-0-0-0-0-0-0-0|
            . .         . .     . .     . .     . .     . .   . .

Verse
Both Guitars
C#|----------------------------------------------------------------|
G#|----------------------------------------------------------------|
E |----------------------------------------------------------------|
B |----------------------------------------------------------------|
F#|-----5h7-----5h7-----5h7-----5h7-----5h7-----5h7-----5h7-----5h7|
C#|-0-0-----0-0-----0-0-----5h7-----0-0-----0-0-----5h7-----5h7----|

    . .     . .     . .             . .    . .
Chorus (Same as intro)


Post Chorus
Both guitars
C#|-------------------------------|
G#|-------------------------------|
E |-------------------------------|
B |-------------------------------|
F#|-2-------4-------2------------5|
C#|-0--0-0--2--0-0--0--0-2-0-2-0-3|

Bridge
C#|----------------------------------------------|
G#|----------------------------------------------|
E |----------------------------------------------|
B |----------------------------------------------|
F#|--2--4--5--0002--4-5--2-2--5h7*-2-2-2---------|
C#|--0--2--3-----0--2-3--0-0-------0-0-0-00000000|


Intro/Chorus x2

Verse x3 1/2, (Because on the first verse on the 4th time he only plays half of the 
Listen for where it stops)

Intro/Chorus x2

Post Chorus x3 1/2 (Same reason, this song likes to stop suddenly a lot. )

Verse x4

Intro/Chorus x2

Post Chorus x3 1/2

Bridge x4

Solo (???)

Chorus x4

Bridge x3 1/2
Tap to rate this tab
# A B C D E F G H I J K L M N O P Q R S T U V W X Y Z