Song name
# A B C D E F G H I J K L M N O P Q R S T U V W X Y Z

Five Finger Death Punch - Hard To See tab

Band: Five Finger Death Punch
Song: Hard to See
Its drop B tuning ( low B F# B E G# C# high)
You have to listen to the songs' strumming pattern.
I only have the intro. I found a guy that played Hard To See on Youtube.
This tabs is my first tab ever made on this site, so it might not be very good.

Intro
C#//------------------------------------|
G#//--------------8-10------------------|
E //--7~---7-9-10-------7~-slide down---| x2
B //------------------------------------|
F#//------------------------------------|
B //------------------------------------|

Then

C#//---------------------------------------------|
G#//---------------------------------------------|
E //---------------------------------------------| x3
b //---------------------------------------------|
F#//-3h5--3h5--3h5--3h5--3h5--3h5---3-5-3--------|
B //-0----0----0----0----0----0-----------5-3-0--|
I'm not for sure about the riff at the end.

C#//---------------------------------|
G#//---------------------------------|
E //---------------------------------|
b //----------------x----------------|
F#//-3h5--3h5--3h5--x----------------|
B //-0----0----0----x----------------|

C#//---------------------------------|
G#//---------------------------------|
E //---------------------------------|
b //-0~---8~--5---5---5---5---5-5----| x2
F#//-0~---8~--5---5---5---5---5-5----|
B //-0~-8-8~--5-5-5-5-5-5-5-5-5-5----|

There you have it! Pretty much the beginning of the song.
If you know any other parts of the song, please post them in the comment section.
Tap to rate this tab
 
# A B C D E F G H I J K L M N O P Q R S T U V W X Y Z