Song name
# A B C D E F G H I J K L M N O P Q R S T U V W X Y Z

Five Finger Death Punch - Hard To See tab

I PLAY A 7-STRING GUITAR MOST OF THERE SONGS ARE ON 7'S AND THAT IS THE WAY 
I PLAY THEM AND IF YOU HAVE THE SOLO IF YOU COULD SEND IT TO MY PROFILE
OR IN THE COMMENT BOX THANK FOR VIEWING THIS TAB.



Intro
Guitar 1
Intro
e|------------------------------------|
B|--------------5-7-------------------|
G|--4~---4-6-7--------4~-slide down---| 
D|------------------------------------|
A|------------------------------------|
E|------------------------------------|
B|------------------------------------|

Guitar 2
e|--------------------------------------------------------------|
B|--------------------------------------------------------------|
G|--------------------------------------------------------------|
D|--------------------------------------------------------------|
A|-------------5-----5------------------------------------------|
E|-2-----2-----3-----3-----7-7-----7-7-----7-7-----7-7-----7----|
B|-0-----0-------------5-5-5-5-5-5-5-5-5-5-5-5-5-5-5-5-5-5-5-5-5|
                       . .     . .     . .     . .     . .   . .

Verse
Both Guitars
e|----------------------------------------------------------------|
B|----------------------------------------------------------------|
G|----------------------------------------------------------------|
D|----------------------------------------------------------------|
A|----------------------------------------------------------------|
E|-----5h7-----5h7-----5h7-----5h7-----5h7-----5h7-----5h7-----5h7|
B|-0-0-----0-0-----0-0-----5h7-----0-0-----0-0-----5h7-----5h7----|
Chorus (Same as intro)


Post Chorus
Both guitars
e|-------------------------------|
B|-------------------------------|
G|-------------------------------|
D|-------------------------------|
A|-------------------------------|  i'm not sure about this part
E|-4-------6-------4------------7|
B|-2--2-2--4--2-2--2--2-4-2-4-2-5|

Bridge
e|-------------------------------|
B|-------------------------------|
G|-------------------------------|
D|-------------------------------|
A|---------------2*--------------|
E|------------------4-444444-----|
B|-0-2-0-4-0-2-5---020222222-----|
Tap to rate this tab
# A B C D E F G H I J K L M N O P Q R S T U V W X Y Z