Song name
# A B C D E F G H I J K L M N O P Q R S T U V W X Y Z

Five Finger Death Punch - Hard To See tab

			     Hard To See - Five Finger Death Punch

Tabbed by:Kse19852009
Email:Buttered_toast14@sbcglobal.net
This song is pretty simple
it just gets hard at the solo
and im not too sure about it
so let me know what you think
enjoy ^_^
Tuning: B,F#,B,E,G#,C#
Intro lead
C#|--------------------------------------------------------------------------|
G#|--------------------------------------------------------------------------|
E |--7---7-9-10--12--10--7---Twice-------------------------------------------|
B |--------------------------------------------------------------------------|
F#|--------------------------------------------------------------------------|
B |--------------------------------------------------------------------------|
   Rhythm
C#|-------------------------------------------------------------------------|
G#|-------------------------------------------------------------------------|
E |-------------------------------------------------------------------------|
B |--7------3------55--55--55--55--5--5--------Twice------------------------|
F#|--5------1------55--55--55--55--5--5-------------------------------------|
B |-------0------005500550055005500500500-----------------------------------|
  Pm      _      __  __  __  __  __ __ __
  Verse1&2 Both Guitars
C#|-------------------------------------------------------------------------|
G#|-------------------------------------------------------------------------|
E |-------------------------------------------------------------------------|
B |----------------------------------------------repeat as needed-----------|
F#|---3h5--3h5--3h5---3h5--3h5--3h5---3h5---3h5-----------------------------|
B |-00---00---00---3h5---00---00---3h5---3h5--------------------------------|
  pm__   __   __         __   __
chorus
C#|-------------------------------------------------------------------------|
G#|-------------------------------------------------------------------------|
E |-------------------------------------------------------------------------|
B |--7------3------55--55--55--55--5--5--------Twice------------------------|
F#|--5------1------55--55--55--55--5--5-------------------------------------|
B |-------0------005500550055005500500500-----------------------------------|
  Pm      _      __  __  __  __  __ __ __
  Preverse
C#|-------------------------------------------------------------------------|
G#|-------------------------------------------------------------------------|
E |-------------------------------------------------------------------------|
B |-------------------------------------------------------------------------|
F#|-------------------------------------------------------------------------|
B |-000-0-0-3p000-0-0-0-3-0-2h3-000-0-0-3p000-0-0-0-3-0-2h3-000-0-0-3p000-0-|
  pm___ _ _    _  _ _ _ _ _     ___ _ _    _  _ _ _ _ _     ___ _ _    _  _
C#|-------------------------------------------------------------------------|
G#|-------------------------------------------------------------------------|
E |-------------------------------------------------------------------------|
B |-------------------------------------------------------------------------|
F#|-------------------------------------------------------------------------|
B |0-0-3-0-2h3-000-0-0-3h000------------------------------------------------|
   _ _ _ _     ___ _ _    _     then to verse
Breakdown typ thingy
C#|-------------------------------------------------------------------------|
G#|-------------------------------------------------------------------------|
E |-------------------------------------------------------------------------|
B |----------------------------------Repeat as needed-----------------------|
F#|--0-2-3---2-3---5Ph------------------------------------------------------|
B |--0-2-3-0-2-3-0-----0-0-0-00000000---------------------------------------|
  pm       _     _
Solo Rythm is the chorus riff
C#|-------------------------------------------------------------------------|
G#|-------------------------------------------------------------------------|
E |-------------ph7~ph7B----------------------------------------------------|
B |-------------------------------------------------------------------------|
F#|-x3Grad.Bend-----------5p38p57p588101010108p7558p55758585858p58810810h12-|
B |-------------------------------------------------------------------------|
    slight pinch harmonic listen for palm muting throughout the solo
C#|--------------------------------------------------------------------------|
G#|--------------------------------------------------------------------------|
E |------10h12p107/9/10/----------------------22b-19--17-19--17b14h15p14--14-|
B |-1012-----------------010121415-15/1717/19-------19-----19-----------15---|
F#|--------------------------------------------------------------------------|
B |--------------------------------------------------------------------------|

Im sorry for stopping here but
i just cant figure the rest out
so ur on ur own hope u can figure
it out better than i could
Tap to rate this tab
 
# A B C D E F G H I J K L M N O P Q R S T U V W X Y Z